rock
 
|tablatures   |lyrics   |discussion forums   |more tabs @ XGuitar.com

Green Day tabs

Fod guitar tab


Date: Sun, July 4 1999
From: Peter Ferragine (pferragine@interhop.net)
Group: Green Day
Album: Dookie
Released: 1994 reprise records
Track: 14
Title: f.o.d.

/ \ - slide 


verse (clean)
 
|-------------------------------------------------------------------|
|-------------------------------------------------------------------|
|-------------------------------------------------------------------|
|-6-6-6-6-6-6-6-6-6-6-6-6-6-6-6-6-4-4-4-4-4-4-4-4-4-6-6-6-6-6-6-6-6-|
|-6-6-6-6-6-6-6-6-6-6-6-6-6-6-6-6-4-4-4-4-4-4-4-4-4-6-6-6-6-6-6-6-6-|
|-4-4-4-4-4-4-4-4-4-4-4-4-4-4-4-4-2-2-2-2-2-2-2-2-2-4-4-4-4-4-4-4-4-|

chorus (clean)

|-----------------------------------------------------------------
|-----------------------------------------------------------------
|-8-8-8-8-8-8-8-8-----------------6-6-6-6-6-6-6-6-----------------
|-8-8-8-8-8-8-8-8-4-4-4-4-4-4-4-4-6-6-6-6-6-6-6-6-6-6-6-6-6-6-6-6-
|-6-6-6-6-6-6-6-6-4-4-4-4-4-4-4-4-4-4-4-4-4-4-4-4-6-6-6-6-6-6-6-6-
|-----------------2-2-2-2-2-2-2-2-----------------4-4-4-4-4-4-4-4-

 -------------------------------------------------------|
 -------------------------------------------------------|
 -8-8-8-8-8-8-8-8-----------------6-6-6-6-6-6-6-6-6-6-6-|
 -8-8-8-8-8-8-8-8-4-4-4-4-4-4-4-4-6-6-6-6-6-6-6-6-6-6-6-|
 -6-6-6-6-6-6-6-6-4-4-4-4-4-4-4-4-4-4-4-4-4-4-4-4-4-4-4-|
 -----------------2-2-2-2-2-2-2-2-----------------------|

verse 2 

|-------------------------|
|-------------------------|
|-6\5---------6\5---------|
|-6\5-6-6-6-6-6\5-4-4-4-4-|
|-4\3-6-6-6-6-4\3-4-4-4-4-|
|-----4-4-4-4-----2-2-2-2-|

chorus is played the same with distortion

lyrics

somethings on my mind its been for quite some time
this time im on to you so where's the other face?
the face i heard before your head trips boring me
lets nuke the bridge we torched 2000 times before
this time well blast it all to hell 
i've had this burning in my guts now for so long
my belly's aching now to say
stuck down in a rut of dislogic and smut
a side of you well hid when its all said and done
its real and its been fun but was it all real fun
your just a fuck i cant explain it cause i think you suck
im taking pride in telling you to fuck off and die
i've had this burning in my guts now for so long
my belly's aching now to say
i've taken pressure in the guts and it's for you
so listen up cause you might miss
  development and support by
dmitry ivanov