rock
 
|tablatures   |lyrics   |discussion forums   |more tabs @ XGuitar.com

Green Day tabs

Extraordinary Girl guitar tab

Extraordinary Girl
Music: Green Day
Album: American Idiot (2004)
Tab By: reizig (reizig@hotmail.com)

Standard Tuning (E A D G B E)

Verse (two guitars):
			          (She's an extraordinary girl)
			          (She sees the mirror of herself)
   A	   D	   A	   D	   A	   D	
e|---------------------------------------------------|
B|-2-2-222-3-3-333-2-2-222-3-3-333-2-2-222-3-3-333---|
G|-2-2-222-2-2-222-2-2-222-2-2-222-2-2-222-2-2-222---|
D|-2-2-222-0-0-000-2-2-222-0-0-000-2-2-222-0-0-000---|
A|---------------------------------------------------|
E|---------------------------------------------------|

e|---------------------------------------------------|
B|---------6---8-6---------6---8-6-------------------|
G|-9---7-9---------9---7-9---------9-----------------|
D|---------------------------------------------------|
A|---------------------------------------------------|
E|---------------------------------------------------|

   A	   D	   A	   G	   A	
e|---------------------------------------------------|
B|-2-2-222-3-3-333-2-2-222-0-0-000-2--22--22-2-222---|
G|-2-2-222-2-2-222-2-2-222-0-0-000-2--22--22-2-222---|
D|-2-2-222-0-0-000-2-2-222-0-0-000-2--22--22-2-222---|
A|-------------------------2-2-222-------------------|
E|-------------------------3-3-333-------------------|

e|---------------------------------------------------|
B|---------------------------------------------------|
G|---------------------------------6--46--46-7-646---|
D|---------------------------------------------------|
A|---------------------------------------------------|
E|---------------------------------------------------|

   (He lacks the courage in his mind)
   (He steals the image in her kiss)
   A	   D	   A	   D	   A	   G	
e|---------------------------------------------------|
B|-2-2-222-3-3-333-2-2-222-3-3-333-2-2-222-0-0-000---|
G|-2-2-222-2-2-222-2-2-222-2-2-222-2-2-222-0-0-000---|
D|-2-2-222-0-0-000-2-2-222-0-0-000-2-2-222-0-0-000---|
A|-----------------------------------------2-2-222---|
E|-----------------------------------------3-3-333---|

e|---------------------------------------------------|
B|---------6---8-6---------6---8-6-------------------|
G|-9---7-9---------9---7-9---------9---9---7---9-7---|
D|---------------------------------------------------|
A|---------------------------------------------------|
E|---------------------------------------------------|
   A
e|-------------------|
B|-2--22--22-2-222---|
G|-2--22--22-2-222---|
D|-2--22--22-2-222---|
A|-------------------|
E|-------------------|

e|-------------------|
B|-------------------|
G|-6--46--46-7-646---|
D|-------------------|
A|-------------------|
E|-------------------|



Chorus (one guitar):

(She's all alone again...)
   F#5   E5   D5      E5     A5    E5   D5   	E5
e|----------------------------5----------------------|
B|-----------------------------5---------------------|
G|------------7-7-7---9-9-------6--9-9--7-7-7---9-9--|
D|-4-44--2-2--7-7-7---9-9----7-----9-9--7-7-7---9-9--|
A|-4-44--2-2--5-5-5---7-7----7-----7-7--5-5-5---7-7--|
E|-2-22--0-0-----------------5-----------------------|

                      (She gets so sick of cryin'...)
    D5        E5       D5       E5
e|----------------------------------|
B|----------------------------------|
G|-7-7-777---9-9-999---7--------9---|
D|-7-7-777---9-9-999---7--------9---|
A|-5-5-555---7-7-777---5--------7---|
E|----------------------------------|



Bridge (played twice):
   A	   D	   A	   D	   A	   G	
e|---------------------------------------------------|
B|-2-2-222-3-3-333-2-2-222-3-3-333-2-2-222-0-0-000---|
G|-2-2-222-2-2-222-2-2-222-2-2-222-2-2-222-0-0-000---|
D|-2-2-222-0-0-000-2-2-222-0-0-000-2-2-222-0-0-000---|
A|-----------------------------------------2-2-222---|
E|-----------------------------------------3-3-333---|

e|---------------------------------------------------|
B|---------6---8-6---------6---8-6-------------------|
G|-9---7-9---------9---7-9---------9--9-10-7---9-7---|
D|---------------------------------------------------|
A|---------------------------------------------------|
E|---------------------------------------------------|
   A
e|-------------------|
B|-2--22--22-2-222---|
G|-2--22--22-2-222---|
D|-2--22--22-2-222---|
A|-------------------|
E|-------------------|

e|-------------------|
B|-------------------|
G|-6--46--46-7-646---|
D|-------------------|
A|-------------------|
E|-------------------|



End chorus (one guitar):

(She's all alone again...)
   F#5   E5   D5      E5     A5    E5   D5   	E5
e|----------------------------5----------------------|
B|-----------------------------5---------------------|
G|------------7-7-7---9-9-------6--9-9--7-7-7---9-9--|
D|-4-44--2-2--7-7-7---9-9----7-----9-9--7-7-7---9-9--|
A|-4-44--2-2--5-5-5---7-7----7-----7-7--5-5-5---7-7--|
E|-2-22--0-0-----------------5-----------------------|

                          (She gets so sick of cryin'...)
    D5        E5     x3    D5       E5
e|--------------------------------------|
B|--------------------------------------|
G|-7-7-777---9-9-999-------7--------9---|
D|-7-7-777---9-9-999-------7--------9---|
A|-5-5-555---7-7-777-------5--------7---|
E|--------------------------------------|



End:
   A	   D	   A	   D	   A	   D	
e|-------------------------------------------------|
B|-2-2-222-3-3-333-2-2-222-3-3-333-2-2-222-3-3-333-|
G|-2-2-222-2-2-222-2-2-222-2-2-222-2-2-222-2-2-222-|
D|-2-2-222-0-0-000-2-2-222-0-0-000-2-2-222-0-0-000-|
A|-------------------------------------------------|
E|-------------------------------------------------|

e|-------------------------------------------------|
B|---------6---8-6---------6---8-6---------6---8-6-|
G|-9---7-9---------9---7-9---------9---7-9---------|
D|-------------------------------------------------|
A|-------------------------------------------------|
E|-------------------------------------------------|

   A	   D	   A (hold)
e|--------------------|
B|-2-2-222-3-3-333-2--|
G|-2-2-222-2-2-222-2--|
D|-2-2-222-0-0-000-2--|
A|--------------------|
E|--------------------|

e|--------------------|
B|---------6---8-6----|
G|-9---7-9---------9--|
D|--------------------|
A|--------------------|
E|--------------------|

Order:

Verse
Chorus
Verse
Chorus
Bridge
End Chorus
End
  development and support by
dmitry ivanov