rock
 
|tablatures   |lyrics   |discussion forums   |more tabs @ XGuitar.com

Green Day tabs

Extraordinary Girl bass tab

--------------------------------------------------------------------------------------
Green Day Extraordinary Girl
--------------------------------------------------------------------------------------

Verse
G|------------------------------------------------------------------------------|
D|-2-2-2-2-2-2--0-0-0-0-0-0--2-2-2-2-2-2--0-0-0-0-0-0--2-2-2-2-2-2--0-0-0-0-0-0-|
A|------------------------------------------------------------------------------|
E|------------------------------------------------------------------------------|

G|---------------------------------------------------------------------------|
D|-2-2-2-2-2-2--0-0-0-0-0-0--2-2-2-2-2-2---------------2-2-2--2-2-2--2-2-2---|
A|---------------------------------------------------------------------------|
E|----------------------------------------3-3-3-3-3-3------------------------|

Verse part 2
G|-------------------------------------------------------------------------------|
D|-2-2-2-2-2-2--0-0-0-0-0-0--2-2-2-2-2-2--0-0-0-0-0-0--2-2-2-2-2-2---------------|
A|-------------------------------------------------------------------------------|
E|------------------------------------------------------------------3-3-3-3-3----|

G|-----------------------------|
D|-----2-2-2-2-2-2-2-2-2-------|
A|-----------------------------|
E|-----------------------------|

Chorus
G|----------------------------------------------------------------------------|
D|----------------------------------------------------------------------------|
A|------------------------5-5-5--7-7-7---------------------------5-5-5--7-7-7-|
E|-2-2-2-2-x--0-0-0-0-0------------------2-2-2-2-x--0-0-0-0-0-----------------|

G|--------------------------------------|
D|--------------------------------------|
A|-5-5-5-5-5--7-7-7-7-7---5~~~---7#-----|
E|--------------------------------------|

Chorus 2
G|----------------------------------------------------------------------------|
D|----------------------------------------------------------------------------|
A|------------------------5-5-5--7-7-7---------------------------5-5-5--7-7-7-|
E|-2-2-2-2-x--0-0-0-0-0------------------2-2-2-2-x--0-0-0-0-0-----------------|

G|----------------------|----------------------|------------------------------|
D|----------------------|----------------------|------------------------------|
A|-5-5-5-5-5--7-7-7-7-7-|-5-5-5-5-5--7-7-7-7-7-|-5-5-5-5-5--7-7-7-7-7---------|
E|----------------------|----------------------|------------------------------|

Order

Verse
Verse part 2
Chorus
Verse
Verse part 2
Chorus
Verse part 2 x 2
Chorus 2
Verse part 2
  development and support by
dmitry ivanov