rock
 
|tablatures   |lyrics   |discussion forums   |more tabs @ XGuitar.com

Green Day tabs

Emenius Sleepus guitar tab

Author/Artist: GREEN_DAY
Title: Emenius_Sleepus
Album: Dookie
Transcribed by: Matt Hondel
Email: mhondel@hotmail.com

I'm pretty sure this is right; and it's a little easier to
play than some of the others.

Song:     Emenius_Sleepus
Band:     GREEN_DAY
Tuning:  EADG
From:      Matt Hondel (mhondel@hotmail.com)

-|-------||---------------|---------------|---------------|---------------|---
-|-------||---------------|---------------|---------------|---------------|---
-|-------||---------------|---------------|---------------|---------------|2x-
-|-------||*--------------|---------------|---------------|--------------*|---
-|-------||*--------------|---------------|---------0-0-0-|--------------*|---
-|-7-7-7-||-0-0-0-2/7-7-7-|-0-0-0-2/7-7-7-|-0-0-0-0-------|-2---2-2/7-7-7-|---
                                                                              

-|---------------|---------------|---------------|---------------|----------|-
-|---------------|---------------|---------------|---------------|----------|-
-|---------------|---------------|---------------|---------------|----------|-
-|---------------|---------------|---------------|---------------|----------|-
-|---------------|---------------|---------------|---------0-0-0-|----------|-
-|-0-0-0-2/7-7-7-|-0-0-0-2/7-7-7-|-0-0-0-2/7-7-7-|-0-0-0-0-------|-2--2-2-0-|-
                                                                              

-|---------------------|------------------------------------------------------
-|---------------------|------------------------------------------------------
-|---------------------|3x----------------------------------------------------
-|*-------------------*|------------------------------------------------------
-|*-------------------*|------------------------------------------------------
-|-0-0-0-0-2-2-2-2-2-2-|------------------------------------------------------
                                                                              

-|-------|---------------|---------------|---------------|---------------|----
-|-------|---------------|---------------|---------------|---------------|----
-|-------|---------------|---------------|---------------|---------------|3x--
-|-------|*--------------|---------------|---------------|--------------*|----
-|-------|*--------------|---------------|---------0-0-0-|--------------*|----
-|-7-7-7-|-0-0-0-2/7-7-7-|-0-0-0-2/7-7-7-|-0-0-0-0-------|-2---2-2/7-7-7-|----
                                                                              

-|---------------|---------------|---------------|---------------|----------|-
-|---------------|---------------|---------------|---------------|----------|-
-|---------------|---------------|---------------|---------------|----------|-
-|---------------|---------------|---------------|---------------|----------|-
-|---------------|---------------|---------------|---------0-0-0-|----------|-
-|-0-0-0-2/7-7-7-|-0-0-0-2/7-7-7-|-0-0-0-2/7-7-7-|-0-0-0-0-------|-2--2-2-0-|-
                                                                              

-|---------------------|------------------------------------------------------
-|---------------------|------------------------------------------------------
-|---------------------|3x----------------------------------------------------
-|*-------------------*|------------------------------------------------------
-|*-------------------*|------------------------------------------------------
-|-0-0-0-0-2-2-2-2-2-2-|------------------------------------------------------
                                                                              

-|----|-------------|---------------|-----------------------|------|----------
-|----|-------------|---------------|-----------------------|------|----------
-|----|-------------|---------------|-----------------------|------|----------
-|----|-------------|---------------|-----------------------|------|----------
-|----|-------------|---------------|-----------------0-0-0-|------|----------
-|-2/-|-7-7-7-0-0-0-|-2/7-7-7-2-2-2-|-5/7-7-7-0-0-0-0-------|-2--2-|----------
                                                                              

-|----|-------------|---------------|-----------------------|---------|-------
-|----|-------------|---------------|-----------------------|---------|-------
-|----|-------------|---------------|-----------------------|---------|2x-----
-|----|*------------|---------------|-----------------------|--------*|-------
-|----|*------------|---------------|-----------------0-0-0-|--------*|-------
-|-2/-|-7-7-7-0-0-0-|-2/7-7-7-0-0-0-|-2/7-7-7-0-0-0-0-------|-2--2-2/-|-------
                                                                              

-|----|---------------------|-------------------------------------------------
-|----|---------------------|-------------------------------------------------
-|----|---------------------|3x-----------------------------------------------
-|----|*-------------------*|-------------------------------------------------
-|----|*-------------------*|-------------------------------------------------
-|-0--|-0-0-0-0-2-2-2-2-2-2-|-------------------------------------------------
                                                                              

-|----|-------------|---------------|-----------------------|---------|-------
-|----|-------------|---------------|-----------------------|---------|-------
-|----|-------------|---------------|-----------------------|---------|2x-----
-|----|*------------|---------------|-----------------------|--------*|-------
-|----|*------------|---------------|-----------------0-0-0-|--------*|-------
-|-2/-|-7-7-7-0-0-0-|-2/7-7-7-2-2-2-|-5/7-7-7-0-0-0-0-------|-2--2-2/-|-------
                                                                              

-|-----------------|-----------------|----------------------------------------
-|-----------------|-----------------|----------------------------------------
-|-----------------|-----------------|4x--------------------------------------
-|*----------------|---2-1-----2-1-2*|----------------------------------------
-|*2---2---2---2---|-0-----2-0------*|----------------------------------------
-|---2---2---2---2-|-----------------|----------------------------------------
                                                                              

-|-----------------|-------------------|--------------------------------------
-|-----------------|-------------------|--------------------------------------
-|-----------------|-------------------|--------------------------------------
-|-----------------|-------------------|--------------------------------------
-|-2---2---2---2---|-0-0-0-0-0-0-------|--------------------------------------
-|---2---2---2---2-|-------------3-3-3-|--------------------------------------
                                                                              

-|---|---------------------|--------------------------------------------------
-|---|---------------------|--------------------------------------------------
-|---|---------------------|3x------------------------------------------------
-|---|*-------------------*|--------------------------------------------------
-|---|*-------------------*|--------------------------------------------------
-|-0-|-0-0-0-0-2-2-2-2-2-2-|--------------------------------------------------
                                                                              

-|----|-------------|---------------|-----------------------|---------|-------
-|----|-------------|---------------|-----------------------|---------|-------
-|----|-------------|---------------|-----------------------|---------|2x-----
-|----|*------------|---------------|-----------------------|--------*|-------
-|----|*------------|---------------|-----------------0-0-0-|--------*|-------
-|-2/-|-7-7-7-0-0-0-|-2/7-7-7-2-2-2-|-5/7-7-7-0-0-0-0-------|-2--2-2/-|-------
                                                                              

-|-----------||---------------------------------------------------------------
-|-----------||---------------------------------------------------------------
-|-----------||---------------------------------------------------------------
-|-----------||---------------------------------------------------------------
-|-----------||---------------------------------------------------------------
-|-7---------||---------------------------------------------------------------
                                                                              
  development and support by
dmitry ivanov