rock
 
|tablatures   |lyrics   |discussion forums   |more tabs @ XGuitar.com

Green Day tabs

Emenius Sleepus bass tab

Song: Emenius Sleepus
Artist: Green Day
Album: Dookie

Verse
Gb--------------------------------------------
Db--9-9-------9-9-------9-9--------7-7--------
Ab------7-7-7-----7-7-7-----7-7-7------9-9-9--
Eb--------------------------------------------

Chorus		       X2
Gb-----------------------|-------------------
Db-----------------------|-------------------
Ab--7-7-7-7-7-9-9-9-9-9--|--7--7--9-9-9-9-9--
Eb-----------------------|-------------------

Bridge/Outro
Gb-------------------------------------------
Db--9-9-------9-9-------9-9-------7-7--------
Ab------7-7-7-----9-9-9-----7-7-7-----9-9-9--
Eb-------------------------------------------

Solo									   X3
Gb----------------------------------9-9-9-8-8-8-6-6-6-----9-9-9-8-8-8-9-9-9--|
Db--9-9-----9-9-----9-9-----9-9-----------------------9-9--------------------|
Ab------9-9-----9-9-----9-9-----9-9------------------------------------------|
Eb---------------------------------------------------------------------------|

Gb--------------------------------------------------------------
Db--9-9-----9-9-----9-9-----9-9---------------------------------
Ab------9-9-----9-9-----9-9-----9-9--12-12-12-12-12--9-9-9-9-9--
Eb--------------------------------------------------------------


Verse X3
Chorus X1
Bridge X1
Verse X2
Chorus X1
Bridge X2
Solo X1
Chorus X1
Outro X2

This tab was created by Christian Mangs. Email me at:
Bassman9@users.basstabarchive.com
  development and support by
dmitry ivanov