rock
 
|tablatures   |lyrics   |discussion forums   |more tabs @ XGuitar.com

Green Day tabs

Dont Want To Fall In Love bass tab

Don't want to fall in love bass tab


Verse

G---------------
D---------------
A-7-7-7-7--7--7-
E---------------

Chorus

G-------------------------------------------------------------
D-------------------------------------------------------------
A-----------------------7-7-7-7--7--7------------7----------7-
E-4-5-5-5-5-5-5-5-5-6-7----------------7-7-7-7-7------7-9-7---

Verse(Before solo)

G---------------------------------
D-------------------6-7-8-9-7-6---
A-7-7-7-7--7--7---7-------------7-
E---------------------------------

Verse under solo
====
  development and support by
dmitry ivanov