rock
 
|tablatures   |lyrics   |discussion forums   |more tabs @ XGuitar.com

Green Day tabs

Dominated Love Slave guitar tab


Date: Sat, April 10 1999
From: Peter Ferragine (pferragine@interhop.net)
Group: Green Day
Album: Kerplunk
Released: 1991 lookout records
Track: 6
Title: dominated love slave


verse

|-------------------------------------------------------------
|-------------------------------------------------------------
|-8-8-8-8-8-8-------------8-8-8-8-8-8-------------8-8-8-8-8-8-
|-8-8-8-8-8-8-6-6-6-6-6-6-8-8-8-8-8-8-8-8-8-8-8-8-8-8-8-8-8-8-
|-6-6-6-6-6-6-6-6-6-6-6-6-6-6-6-6-6-6-8-8-8-8-8-8-6-6-6-6-6-6-
|-------------4-4-4-4-4-4-------------6-6-6-6-6-6-------------

 -----------------------------------------|
 -----------------------------------------|
 -------------8-8-8-8---------8-8-8-8-8-8-|
 -6-6-6-6-6-6-8-8-8-8-8-8-8-8-8-8-8-8-8-8-|
 -6-6-6-6-6-6-6-6-6-6-8-8-8-8-6-6-6-6-6-6-|
 -4-4-4-4-4-4---------6-6-6-6-------------|

chorus

|-------------------------------------------------|
|-------------------------------------------------|
|-------------8-8-8-8-8-8-------------8-8-8-8-8-8-|
|-6-6-6-6-6-6-8-8-8-8-8-8-8-8-8-8-8-8-8-8-8-8-8-8-|
|-6-6-6-6-6-6-6-6-6-6-6-6-8-8-8-8-8-8-6-6-6-6-6-6-|
|-4-4-4-4-4-4-------------6-6-6-6-6-6-------------|

lyrics

i wanna be your dominated love slave
i wanna be the one who takes the pain
you can spank me when i do not behave
mack me in the forehead with a chain
cause i love feelin' dirty
and i love feelin' cheap
and i love it when you hurt me
so drive those staples deep
i want you to slap me and call me naughty
put a beltsander into my skin
i want to feel pain all over my body
i can't wait to be punished for my sins
i love it when you hurt me
so drive those staples deep
  development and support by
dmitry ivanov