rock
 
|tablatures   |lyrics   |discussion forums   |more tabs @ XGuitar.com

Green Day tabs

Do Da Da guitar tab

green day
do da da
Intro:
E---4------------------------------------------------------------------------
A---6----6---3x's---then...----4----6----------------------------------------
D--------8---------------------6----8----------------------------------------
G----------------------------------------------------------------------------
B----------------------------------------------------------------------------
e----------------------------------------------------------------------------

Verses:
E---4--------------4---------------------------------------------------------
A---6----6----4---6---6-------2x's-------------------------------------------
D--------8----6--------8-----------------------------------------------------
G----------------------------------------------------------------------------
B----------------------------------------------------------------------------
e----------------------------------------------------------------------------

Chorus:
Rush into my depression, sacrifice everything.....
E---1----4----1----4---------------------------------------4--------------------
A---3----6----3----6----6----2x's-----second-time play  -6---6------------------
D------------------------8--------------------------------------8---three times-
G-------------------------------------------------------------------------------
B-------------------------------------------------------------------------------
e-------------------------------------------------------------------------------

Solo:
E---4--------------4--------------------------------------------------------
A---6----6----4---6---6-------2x's------------------------------------------
D--------8----6--------8----------------------------------------------------
G---------------------------------------------------------------------------
B---------------------------------------------------------------------------
e---------------------------------------------------------------------------


Do Da Da
Green Day
Brain Stew/Jaded single (1995)
Lyrics: Billie Joe Armstrong
Music: Green Day
Tuning: 1/2 step down (sounds a semitone lower than written here)
Notes: Another rather simple song, not sure about the end of the
2nd verse lyrics though.

h = hammer-on
p = pull-off
b = bend
/ = slide up
\ = slide down
5 = power chord

Intro
   A5   E5  E5   (x3)  D5   E5
e|---------------------------------------------------------------|
B|---------------------------------------------------------------|
G|----------9-9--------7----9------------------------------------|
D|-7----2-2-9-9--------7----9------------------------------------|
A|-7----2-2-7-7--------5----7------------------------------------|
E|-5----0-0------------------------------------------------------|

Verse (x2)
   A5   E5   D5   A5 E5
e|---------------------------------------------------------------|
B|---------------------------------------------------------------|
G|-----------7---------------------------------------------------|
D|-7----2----7----7--2-------------------------------------------|
A|-7----2----5----7--2-------------------------------------------|
E|-5----0---------5--0-------------------------------------------|

Chorus
   F#5  D5   F#5  A5 E5   F#5  D5   F#5
e|---------------------------------------------------------------|
B|---------------------------------------------------------------|
G|------7----------------------7----------(intro)----------------|
D|-4----7----4----7--2----4----7----4----------------------------|
A|-4----5----4----7--2----4----5----4----------------------------|
E|-2---------2----5--0----2---------2----------------------------|


Order

Intro
Verse 1
Chorus
Verse 2
Chorus
Bridge (verse chords)
Chorus (replace last D5-E5 with A5)


Lyrics

Every time I'm falling now
You take the repercussions
Headaches and anxiety
Advancing my frustrations

Rush into my depression
Sacrifice everything
Waste with me into nothing
Well now you're stuck with me
Stuck with me
Stuck with me

Handcuff your soul to my wrist
And I'll vow my trust to you
Moving in I always thought
I realize you've imagined

(Chorus)
(Bridge)
(Chorus)
  development and support by
dmitry ivanov