rock
 
|tablatures   |lyrics   |discussion forums   |more tabs @ XGuitar.com

Green Day tabs

Do Da Da bass tab

Song: Do Da Da
Band: Green Day
Album: Brain Stew/Jaded Single


INTRO
Gb|------------------|		|------------------|
Db|------------------| 	X 3  	|------7p6-----6h7-|
Ab|------------7-7-0-|		|--5-5-----7-7-----|
Eb|--5-5--0-0--------|		|------------------|

VERSE
Gb|--------------------------------------------------------------|
Db|--------------------------------------------------------------|
Ab|------------------------------------5-5-5-5-5-5-5-5-----------|
Eb|--5-5-5-5-5-5-5-5--0-0-0-0-0-0-0-0-------------------5-5--0-0-|

Gb|--------------------------------------------------------------|
Db|----------------------------------------------7-6-------------|
Ab|------------------------------------5-5-5-5-5-----7-----------|
Eb|--5-5-5-5-5-5-5-5--0-0-0-0-0-0-0-0-------------------5-5--0-0-|

CHORUS
Gb|--------------------------------------------------------------|
Db|--------------------------------------------------------------|
Ab|-------------------5-5-5-5-5-5-5-5----------------------------|
Eb|--2-2-2-2-2-2-2-2-------------------2-2-2-2-2-2-2-2--5-5--0-0-|

Gb|--------------------------------------------------------------|
Db|--------------------------------------------------------------|
Ab|-------------------5-5-5-5-5-5-5-5----------------------------|
Eb|--2-2-2-2-2-2-2-2-------------------2-2-2-2-2-2-2-2--5-5--0-0-|

Gb|--------------------------------------|
Db|--------------------------7p6-----6h7-|
Ab|--7-7------------7-7--5-5-----7-7-----|
Eb|-------5-5--0-0-----------------------|

END
Gb|------|
Db|------|
Ab|------|
Eb|--(5)-|
  development and support by
dmitry ivanov