rock
 
|tablatures   |lyrics   |discussion forums   |more tabs @ XGuitar.com

Green Day tabs

Desensitized bass tab

Song: Desensitized
Artist: Green Day
Album: Nimrod (Import) / Shenanigans
Transcribed by: AlanTheWise (spfan607@yahoo.com)

This is in standard tuning and its really easy once you practice it a bit. When I origonally
tabbed this song (back in 2000) it was only on the import version of Nimrod. Now it\'s also on the
Shenanigans album, so please, for the love of God, STOP EMAILING ME TO TELL ME THAT! It\'s
retarded that I have to keep updating my tabs simply because people can\'t take a hint that just
MAYBE it\'s from a few years ago. But if you have any comments regarding the actual tab itself, by
all means I shall welcome your email with open arms.

With that aside, enjoy!

Chorus Riff
G:-----------------|
D:-----------------|
A:--------3-3-3----|
E:--3-333-------3--|


Verse (starts at 0:47)
G:-----------------------------------------------------------
D:----------------------------------------------------------- x2
A:-----------------------------------------------------------
E:--0--0--0-0-0-0--0-0--0-0-0-0-3--3--3-3-3-3--3-3--3-3-3-3--

G:------------------------------------------------------------
D:----------2-3--------------------------2-3------------------
A:------------------------------------------------------------
E:--5--5--5-----1--1-1--1-1-1-1-5--5--5------1--1-1-1--1-1-0--

G:---------------------------------------------------------|
D:---------------------------------------------------------|
A:--3--3--3-3-3--------------------------------------------|
E:--------------3--3-3-3--3-3-0-1--1--1-1-1-1--1-1--1-1-1--|


Chorus ver 2 (1:57)
G:---------------------------------|
D:---------------------------------|
A:--------3--3-3-------------------|
E:--3-3-3--------3--3-3-3-3-3-3-3--|


THE END!! Send questions, comments, corrections, request, and hate mail to...
spfan607@yahoo.com
  development and support by
dmitry ivanov