rock
 
|tablatures   |lyrics   |discussion forums   |more tabs @ XGuitar.com

Green Day tabs

Deadbeat Holiday guitar tab

#----------------------------------PLEASE NOTE---------------------------------#
#This file is the author's own work and represents their interpretation of the #
#song. You may only use this file for private study, scholarship, or research. #
#------------------------------------------------------------------------------##

GREEN DAY - Deadbeat
from "Warning" (2000)

verse:
G   D   G   C   G   Emin   C   D
G   D   G   C   G   Emin   C   D  
Bmin  C  G  C  G
Emin  Bmin  C  D


chorus:
G  Bmin  C  G
C  G  F  D
G  Bmin  C  G
C  G  F  D(with riff 1)

riff 1:        
-------------3----2---
--3-----1----1----3---
--2-----2----2----2---
--0-----0----0----0---
----------------------
----------------------

chords used:
  G     D    C    Emin  Bmin   F 
--3-----2----0----0-----2------1----
--0-----3----1----0-----3------1----
--0-----2----0----0-----4------2----
--0-----0----2----2-----4------3----
--2----------3----2-----2------3----
--3---------------0------------1----
  development and support by
dmitry ivanov