rock
 
|tablatures   |lyrics   |discussion forums   |more tabs @ XGuitar.com

Green Day tabs

Coming Clean guitar tab


Date: Sun, July 4 1999
From: Peter Ferragine (pferragine@interhop.net)
Group: Green Day
Album: Dookie
Released: 1994 reprise records
Track: 11
Title: coming clean

**tune  step down**

: - let ring


intro

|---------------|
|---------------|
|-4:------------|
|-4:-----6:-----|
|-2:-----6:-----|
|--------4:-----|

verse 

|-----------------------------------------------------------------|
|-----------------------------------------------------------------|
|-4--4-4-4--4-4-4-----------------4--4-4-4--4-4-4-----------------|
|-4--4-4-4--4-4-4-6--6-6-6--6-6-6-4--4-4-4--4-4-4-6--6-6-6--6-6-6-|
|-2--2-2-2--2-2-2-6--6-6-6--6-6-6-2--2-2-2--2-2-2-6--6-6-6--6-6-6-|
|-----------------4--4-4-4--4-4-4-----------------4--4-4-4--4-4-4-|

chorus

|-----------------------------------------------------------------|
|-----------------------------------------------------------------|
|-----------------------------------------------------------------|
|-4--4-4-4--4-4-4-2--2-2-2--2-2-2-4--4-4-4--4-4-4-2--2-2-2--2-2-2-|
|-4--4-4-4--4-4-4-2--2-2-2--2-2-2-4--4-4-4--4-4-4-2--2-2-2--2-2-2-|
|-2--2-2-2--2-2-2-0--0-0-0--0-0-0-2--2-2-2--2-2-2-0--0-0-0--0-0-0-|

outro

|---------|
|---------|
|-4:----4-|
|-4:----4-|
|-2:----2-|
|---------|

lyrics

seventeen and strung out on confusion
traped inside a roll of disillusion
i found out what it takes to be a man
mom and dad will never understand
secrets collecting dust but never forget
skeletons come to life in my closet
i found out what it takes to be a man
mom and dad will never understand
what's happening to me
seventeen and coming clean for the first time
i finally figured out myself for the first time
i found out what it takes to be a man
mom and dad will never understand
what's happening to me
  development and support by
dmitry ivanov