rock
 
|tablatures   |lyrics   |discussion forums   |more tabs @ XGuitar.com

Green Day tabs

Church On Sunday guitar tab

Band: Green Day
Song: Church on Sunday
Album: Warning
Name: Kevin
Address: Kev84NY@hotmail.com
Tuning: Standard-EADGBe

This is my favorite song on Green Day's new album, "Warning."
It's very easy...all power chords. Everything should
be right, so enjoy!

Intro

      A         D         E
|------------------------------|
|------------------------------|
|---------------7--------------|
|-----7---------7---------2----|
|-----7---------5---------2----|
|-----5-------------------0----|


1st Verse
      A         D         E
|------------------------------|
|------------------------------|
|---------------7--------------|
|-----7---------7---------2----|
|-----7---------5---------2----|
|-----5-------------------0----|

Chorus
Play twice
"Bloodshot deadbeat..."
      F#        D         E
|------------------------------|
|------------------------------|
|-------------------------9----|
|-----4---------7---------9----|
|-----4---------7---------7----|
|-----2---------5--------------|

"If I promise to go to church on Sunday...."
Play twice

|----------------------------------------------------------|
|----------------------------------------------------------|
|----------7--------------7--------------7--------------9--|
|-----7----7----2----7----7----2----7----7----2----7----9--|
|-----7----5----2----7----5----2----7----5----2----7----7--|
|-----5---------0----5---------0----5---------0----5-------|

Between Chorus & Verse

      A         D         E
|------------------------------|
|------------------------------|
|---------------7--------------|
|-----7---------7---------2----|
|-----7---------5---------2----|
|-----5-------------------0----|

Verse 2 (Played with E at 7th fret instead of 2nd)

     A          D         E
|------------------------------|
|------------------------------|
|---------------7---------9----|
|-----7---------7---------9----|
|-----7---------5---------7----|
|-----5------------------------|

Chorus is the same as in the beginning.
End song on A power chord.

That's about it guys. Everything should be right.
If you have any comments, questions, or corrections,
my e-mail address is Kev84NY@hotmail.com
  development and support by
dmitry ivanov