rock
 
|tablatures   |lyrics   |discussion forums   |more tabs @ XGuitar.com

Green Day tabs

Chump guitar tab

Green Day (Dookie)

CHUMP - tabbed by Peter Ferragine 


: - let ring

**down tune guitar  step**

verse

|---------------------------|
|---------------------------|
|-4-4-4-4-------------------|
|-4-4-4-4-4-2-2-2-2-2-2-2-2-|
|-2-2-2-2-4-2-2-2-2-2-2-2-2-|
|---------2-0-0-0-0-0-0-0-0-|

|-----------------------|
|-----------------------|
|-----------------------|
|-4-4-4-4-4-4-4-4-4-4-4-|
|-4-4-4-4-4-4-4-4-4-4-4-|
|-2-2-2-2-2-2-2-2-2-2-2-|

chorus

|---------------------------------|
|---------------------------------|
|-------------------4-4-4-4-4-4-4-|
|-7-7-7-7-7-4-4-4-4-4-4-4-4-4-4-4-|
|-7-7-7-7-7-4-4-4-4-2-2-2-2-2-2-2-|
|-5-5-5-5-5-2-2-2-2---------------|

bridge

|--------------------------------------------------------------------
|--------------------------------------------------------------------
|-11-11:-----11-11:---11-11:---11-11:--11-11:--9-9:-11-11:-11-9-11-9-
|-11-11:-----11-11:---11-11:---11-11:--11-11:--9-9:-11-11:-11-9-11-9-
|--9--9:------9--9:----9--9:----9--9:---9--9:--7-7:--9--9:--9-7--9-7-
|--------------------------------------------------------------------

 -------------------------|
 -------------------------|
 -11-11-11-11-11-11-11-11-|
 -11-11-11-11-11-11-11-11-|
 --9--9--9--9--9--9--9--9-|
 -------------------------|

lyrics

i don't know you but i think i hate you
you're the reason for my misery
strange how you've become my biggest enemy
and i've never even seen your face
maybe it's just jealousy, mixing up with a violent mind
a circumstance that doesn't make much sense
or maybe i'm just dumb
you're the cloud hanging out over my head
hail comes crashing down welting my face
magic man, egocentric plastic man
yet you still got one over on me

Transcribed by Peter Ferragine  April 21 1999
http://www.geocities.com/SunsetStrip/7280/dookie.html
  development and support by
dmitry ivanov