rock
 
|tablatures   |lyrics   |discussion forums   |more tabs @ XGuitar.com

Green Day tabs

Castaway guitar tab

Author/Artist: Green Day
Title: Castaway
Album: Warning
Transcribed by: Joel Batson
Email: joel-5@usa.net
Tuning: Standard
Tempo: Moderate

Main Riff (Intro, Verse, Chorus)
--|---------------------------------------------------------------------------
--|---------------------------------------------------------------------------
-x|4rx4rx4r----------------x-4-4----------------------------------------------
-x|4rx4rx4r-x-6-6-2r-2r-2r-x-4-4----------------------------------------------
-x|2rx2rx2r-x-6-6-2r-2r-2r-x-2-2----------------------------------------------
--|---------x-4-4-------------------------------------------------------------                                                      

Pre-Chorus Part 1: "I'm on a mission into destination un-"
------------------------------------------------------------------------------
------------------------------------------------------------------------------
------------------------------------------------------------------------------
-222222222222222222222222222222-----------------------------------------------
-222222222222222222222222222222-----------------------------------------------
------------------------------------------------------------------------------
                 
Pre-Chorus Part 2: "known"
------------------------------------------------------------------------------
------------------------------------------------------------------------------
-4r-4r-4r-3-3/4---------------------------------------------------------------
-4r-4r-4r-3-3/4---------------------------------------------------------------
-2r-2r-2r-1-1/2---------------------------------------------------------------
------------------------------------------------------------------------------
                                               
Pre-Chorus Part 3: "An expedition...."
------------------------------------------------------------------------------
------------------------------------------------------------------------------
------------------------------------------------------------------------------
-222222222222222222222222222222-4---------------------------------------------
-222222222222222222222222222222-4---------------------------------------------
--------------------------------2---------------------------------------------
                                                             
Guitar Solo:
-5p2-2-5p2-2-5p2-5p2-5p2-2br\-------------------------------------------------
-5p2-2-5p2-2-5p2-5p2-5p2-2br\-------------------------------------------------
------------------------------------------------------------------------------
------------------------------------------------------------------------------
------------------------------------------------------------------------------
------------------------------------------------------------------------------
                                                                          
  development and support by
dmitry ivanov