rock
 
|tablatures   |lyrics   |discussion forums   |more tabs @ XGuitar.com

Green Day tabs

Castaway bass tab

tab: castaway
 artist: green day
 albumb: warning
 
  standard tuning  (E,A,D,G)
 Riff 1
 |------------------------------------|
 |------------------------------------|
 |-2--2--2-----------------2--2-------|       
 |----------4--4--0--0--0-------------|
 
 Riff 2
 |-----------------------------------------|
 |-----------------------------------------|
 |----------------2-2-2---2--2-2-2---2-----|       
 |0-0-0-0-0-0-0-0-------4----------4-------|
 
 Riff 3
 |-----------------------------------------|
 |-----------------------------------------|
 |-----------------------------------------|
 |0-0-0-0-0-0-0-0--2~~~~~~-----------------|

ORDER
Riff 
1,1,1,1,1,1,2,3,1,1,1,1,3,1,1,1,1,1,1,1,2,3,1,1,1,1,3,1,1,1,1,1,1,1,1,1,2,3,1,

1,1,1,3,1,1,1,1,

Solo part i haven't figured out yet but i will send it in once i figure it 
out... if you have any questions you can email me at Boarderdude900@aol.com 
thanx...
  development and support by
dmitry ivanov