rock
 
|tablatures   |lyrics   |discussion forums   |more tabs @ XGuitar.com

Green Day tabs

Brat guitar tab


Date: Tues, July 6 1999
From: Peter Ferragine (pferragine@interhop.net)
Group: Green Day
Album: Insomniac
Released: 1995 reprise records
Track: 2
Title: brat

x - scratch


intro

|----------|
|----------|
|-4-----7--|
|-4--4--7--|
|-2--4--5--|
|----2-----|

verse

|-----------------------------------------------------------------|
|-----------------------------------------------------------------|
|---------4-4-4-4-----------------4-4-4-4---------6-6-6-6-6-6-6-6-|
|-4-4-4-4-4-4-4-4-4-4-4-4-4-4-4-4-4-4-4-4-4-4-4-4-6-6-6-6-6-6-6-6-|
|-4-4-4-4-2-2-2-2-4-4-4-4-4-4-4-4-2-2-2-2-4-4-4-4-4-4-4-4-4-4-4-4-|
|-2-2-2-2---------2-2-2-2-2-2-2-2---------2-2-2-2-----------------|

chorus

|-----------------------------------------------------------------
|-----------------------------------------------------------------
|-4-4-4-4---------4-4-4-4---------4-4-4-4---------6-6-6-6-6-6-6-6-
|-4-4-4-4-4-4-4-4-4-4-4-4-4-4-4-4-4-4-4-4-4-4-4-4-6-6-6-6-6-6-6-6-
|-2-2-2-2-4-4-4-4-2-2-2-2-4-4-4-4-2-2-2-2-4-4-4-4-4-4-4-4-4-4-4-4-
|---------2-2-2-2---------2-2-2-2---------2-2-2-2-----------------

 -----------------------------------------------------------------|
 -----------------------------------------------------------------|
 -4-4-4-4---------4-4-4-4---------x-x-x-x-x-x-x-x-6-6-6-6-6-6-6-6-|
 -4-4-4-4-4-4-4-4-4-4-4-4-4-4-4-4-x-x-x-x-x-x-x-x-6-6-6-6-6-6-6-6-|
 -2-2-2-2-4-4-4-4-2-2-2-2-4-4-4-4-x-x-x-x-x-x-x-x-4-4-4-4-4-4-4-4-|
 ---------2-2-2-2---------2-2-2-2---------------------------------|

lyrics

mom and dad don't look so hot these days
they're getting over the hill
death is closing in and catching up
as far as i can tell
got a plan of action and cold blood
and it smells of defiance
i'll just wait for mom and dad to die
and get my inheritance
now i want more cause i'm getting bored
and i'm going nowhere fast
i was once filled with doubt now it's all figured out
nothing good can last
crows feet and rot are setting in
and time is running out
my parents income interest rate
is gaining higher clout
i'm a snot nosed slob without a job
and i know i damn well should
mom and dad don't look so hot these days
but my future's looking good
  development and support by
dmitry ivanov