rock
 
|tablatures   |lyrics   |discussion forums   |more tabs @ XGuitar.com

Green Day tabs

Brat bass tab

Song: Brat
Artist: Green Day
Album: Insomniac

Intro
G-------------------
D-------------------
A--2-2-----4-2------
E------2-2-----4-2--

Verse/Bridge
G--------------------------------------
D-------------------------------4p2----
A------2-2----------2-2-----2-2-----4--
E--2-2-----2-2-2-2------2-2------------

Chorus
G----------------------------------------------------------------------------------------------
D----------------------------------4p2---------------------------------------------------------
A--2-2-----2-2-----2-2-----4-4-4-4-----4---2-2-----2-2-----2-2-----4-4-4-4-4-4----2-2-2-1-1-1--
E------2-2-----2-2-----2-2---------------------2-2-----2-2-----2-2-----------------------------

Intro X1
Verse X3
Chorus X1
Verse X3
Chorus X1
Bridge X4
Chorus X1

This tab was created by Christian Mangs. Email me at 
Shadow145@hotmail.com
  development and support by
dmitry ivanov