rock
 
|tablatures   |lyrics   |discussion forums   |more tabs @ XGuitar.com

Green Day tabs

Boulevard Of Broken Dreams bass tab

Tabbed by: propone98
Artist: Mike Dirnt
Song: Boulevard of Broken Dreams
Album: American Idiot
Tuning: G,D,A,E

Verse
|------------------------------------------------------------|
|------------------------------------------------------------|
|-------------------------/--6--6----------------------------|  X 5
|--1---1--/--4-4----4------------6---6---\\---4---\\---1-------|

|------------------------------------------------------------|
|------------------------------------------------------------|
|------------------------/--6--6-----------------------------|  X 1
|--1---1--/--4-4----4-----------6---6---8---9----------------|

Chorus
|------------------------------------------------------------|
|------------------------------------------------------------|
|--4444----------6666----------4444----------6666--8888------|
|----------4444----------6666----------4444------------------|
                                                                                                                                                                                   X 1
|------------------------------------------------------------|
|------------------------------------------------------------|
|--4444---------66666----------------------------------------|
|--------4444------------------------------------------------|

Verse
|------------------------------------------------------------|
|------------------------------------------------------------|
|-------------------------/--6--6----------------------------|  X 8
|--1---1--/--4-4----4------------6---6---\\---4---\\---1-------|

|------------------------------------------------------------|
|------------------------------------------------------------|
|------------------------/--6--6-----------------------------|  X 1
|--1---1--/--4-4----4-----------6---6---8---9----------------|



Chorus
|------------------------------------------------------------|
|------------------------------------------------------------|
|--4444----------6666----------4444----------6666--8888------|
|----------4444----------6666----------4444------------------|
                                                                                                                                                                                   X 1
|------------------------------------------------------------|
|------------------------------------------------------------|
|--4444----------6666----------4444----------66666-----------|
|----------4444----------6666----------4444------------------|

Verse
|------------------------------------------------------------|
|------------------------------------------------------------|
|-------------------------/--6--6----------------------------|  X 1
|--1---1--/--4-4----4------------6---6---\\---4---\\---1-------|

|------------------------------------------------------------|
|------------------------------------------------------------|
|------------------------/--6--6-----------------------------|  X 1
|--1---1--/--4-4----4-----------6---6---8---9----------------|

Chorus
|------------------------------------------------------------|
|------------------------------------------------------------|
|--4444----------6666--8888----------------------------------|  X 2
|----------4444----------------------------------------------|

Interlude
|------------------------------------------------------------|
|------------------------------------------------------------|
|--44-------6666--8888------44--------3333333333333----------|
|-------44-----------------------44--------------------------|

|-----------------------------------------------------------------------|
|-----------------------------------------------------------------------|
|--4444----------6666----------4444----------6666--8888--4444-----------|
|----------4444----------6666----------4444--------------------4444-----|

|-----------------------------------------------------------------------|
|-----------------------------------------------------------------------|
|--6666----------4444----------3333333333333333-------------------------|
|----------6666----------4444-------------------------------------------|

Ending
|-----------------------------------------------------------------------|
|-----------------------------------------------------------------------|
|------------4--4-4---6--6-6---5--5-5-----------------------------------|  X 4
|--1--1-1----------------------------------4--4-4---0--0-0--------------|

|-----------------------------------------------------------------------|
|-----------------------------------------------------------------------|
|------------4--4-4---6--6-6---5--5-5-----------------------------------|  X 1
|--1--1-1----------------------------------4-4---0-0--------------------|

This is my first tab, i'm sure most of it is right, please correct as
needed.
  development and support by
dmitry ivanov