rock
 
|tablatures   |lyrics   |discussion forums   |more tabs @ XGuitar.com

Green Day tabs

Blood Sex And Booze guitar tab

Song:Blood,Sex and Booze
Artist:Green Day
Album:Warning
Transcribed by:Alex Harbin(geekstink86@punkjunk.com)


Verse:
Palm Mute
|-------------------|--------------------------|
|-------------------|--------------------------|
|-------------------|--------------------------|
|-------------------|--------------------------|
|---9-9-9-9-9-9-9-9-|-10-10-10-10-10-10-10-10--|
|---7-7-7-7-7-7-7-7-|--8--8--8--8--8--8--8--8--|


Chorus:
|-------------------|-------------------|
|-------------------|-------------------|
|--6-6-6-6-6-6-6-6--|-------------------|
|--6-6-6-6-6-6-6-6--|--7-7-7-7-7-7-7-7--|
|--4-4-4-4-4-4-4-4--|--7-7-7-7-7-7-7-7--|
|-------------------|--5-5-5-5-5-5-5-5--|






Interlude:
|-------------------|---------------------|
|-------------------|---------------------|
|--7-7-7-7-7-7-7-7--|---5-5-5-5-5-5-5-5-5-|
|--7-7-7-7-7-7-7-7--|---5-5-5-5-5-5-5-5-5-|
|--5-5-5-5-5-5-5-5--|---3-3-3-3-3-3-3-3-3-|
|-------------------|---------------------|
          
  development and support by
dmitry ivanov