rock
 
|tablatures   |lyrics   |discussion forums   |more tabs @ XGuitar.com

Green Day tabs

Best Thing In Town guitar tab


Date: Sun, April 11 1999
From: Peter Ferragine (pferragine@interhop.net)
Group: Green Day
Album: Kerplunk
Released: 1991 lookout records
Track: 14
Title: best thing in town


intro

|-------------------------|
|-------------------------|
|-6-6-6-6-4-4-4-4---------|
|-6-6-6-6-4-4-4-4-8-8-8-8-|
|-4-4-4-4-2-2-2-2-8-8-8-8-|
|-----------------6-6-6-6-|

verse

|-------------------------|
|-------------------------|
|-------------------------|
|-8-8-8-8-8-8-8-8-8-8-8-8-|
|-8-8-8-8-8-8-8-8-8-8-8-8-|
|-6-6-6-6-6-6-6-6-6-6-6-6-|

chorus

|---------------------------------|
|---------------------------------|
|---------------------------------|
|-10-10-10-10-6-6-6-8-8-8-8-8-8-8-|
|-10-10-10-10-6-6-6-8-8-8-8-8-8-8-|
|--8--8--8--8-4-4-4-6-6-6-6-6-6-6-|

bridge 

|---------------------------------|
|---------------------------------|
|-8-8-8-8---------4-4-4-4---------|
|-8-8-8-8-8-8-8-8-4-4-4-4-4-4-3-3-|
|-6-6-6-6-8-8-8-8-2-2-2-2-4-4-3-3-|
|---------6-6-6-6---------2-2-1-1-|

lyrics

come with me and lets go for a ride
follow me to the other side
as i sit around and watch you pout
cause i know that youčre the
best thing in town
best thing around
running wild and always running free
doing things that i have never seen
eerie colors and all i see are sounds
now i know that you're the
(can't quite make out the lyrics..)
i see these faces _________________
and then i run _______________
__________________________________
a missing piece _______________ in my mind
      
  development and support by
dmitry ivanov