rock
 
|tablatures   |lyrics   |discussion forums   |more tabs @ XGuitar.com

Green Day tabs

Babs Uvula Who bass tab

Song: Bab's Uvla Who?
Artist: Green Day
Album: Insomniac

Intro/Verse
Gb-----4-----4-----4----------4-----4--
Db--------------------------2----------
Ab--2-----2-----2-----0--4------2------
Eb-------------------------------------

Chorus			 X3
Gb----------------------4--|----------------------4--------------------
Db-------------------2-----|-------------------2-----------------------
Ab--2-2-2-2-2--0--4--------|--2-2-2-2-2--0--4---------------------/14--
Eb-------------------------|------------------------2-2-2-2-2-2--------

2nd Verse
G--------4-------4-------4-----------4--
D---------------------------------2-----
A--2-2-2---2-2-2---2-2-2----0--4--------
E---------------------------------------

Final Chorus
Gb----------------------4--|----------------------4------4-----4-----4--
Db-------------------2-----|-------------------2------------------------
Ab--2-2-2-2-2--0--4--------|--2-2-2-2-2--0--4--------2------2-----2-----
Eb-------------------------|--------------------------------------------

Intro X6
Chorus X1
Verse X5
Chorus X1
2nd Verse X6
Final Chorus X1


This tab was created by Christian Mangs. Email me at:
Shadow145@hotmail.com
  development and support by
dmitry ivanov