rock
 
|tablatures   |lyrics   |discussion forums   |more tabs @ XGuitar.com

Green Day tabs

At The Library guitar tab

title: at the library
artist: green day
album: 1039 smoothed out slappy hours

this is my favoritie song off of the album and its not hard to play.
intro: (plam muted)
----2-2-2--------------------
----3-3-3--1--1--1----------riff 1
----2-2-2--------------------
------------2--2--2----------
------------3--3--3----------

-----------------------------
-----------------------------
-----------------------------riff 2
--4-4-4-4-4------------------
--2-2-2-2-2------------------


-------------------------------------------------------
-------------------------------------------------------
-------------------------------------------------------
-----------------------------5-5-5-5------7-7-7-7------ riff 3
--5-5-5-5--------9-9-9-9--3-3-3-3------5-5-5-5---------
--3-3-3-3--------7-7-7-7-------------------------------



harmonics
----------------12------
---------12--------12--- riff 4
--12--------12----------
-----12-----------------

chorus
--------------------------------------------------------------
--------------------------------------------------------------
--------------------------------------------------------------
---------------7-7-7-7-7-----------------7-7-7-7-7--5-5-5-5-5- riff 5
--2-2-2-2-2--5-5-5-5-5----2-2-2-2-2---5-5-5-5-5--3-3-3-3-3----
--0-0-0-0-0-----------------0-0-0-0-0-------------------------

--------------------------------------------------------------
--------------------------------------------------------------
--------------------------------------------------------------
---------------------------------------------------7-7-7-7-7--
--5------5--------5------------5-5-5-5-5-5-5----5-5-5-5-5----- riff 6
--3------3--------3------------3-3-3-3-3-3-3------------------
palm muted


song:
riff 1 3x
riff 2
riff 1 3x
riff 2
riff 3 4x
riff 4 2x
riff 3 4x
riff 5
riff 3 4x
riff 5
riff 6
riff 3 4x
riff 1 3x
riff 4 thats all, if i made a mistake it wont be hard
to fix it yourself so.......
  development and support by
dmitry ivanov