rock
 
|tablatures   |lyrics   |discussion forums   |more tabs @ XGuitar.com

Green Day tabs

At The Library bass tab

Song: At the Library
Artist: Green Day
Album: 39/Smooth

Intro	   X3
G------------|-------------
D------------|-------------
A--5-5--3-3--|--2-2-2-2-2--
E------------|-------------

Verse
G-----------------
D-----------------
A------2-2-3-3-5--
E--3-3------------

Chorus	X3
G---------|-----------------------
D---------|-----------------------
A------5--|--3--3-3-3-3--5p3p2----
E--0------|--------------------3--
(Let each single note ring)

Bridge
G------------------------------------
D------------------------------------
A------------2h3h5p3p2------5-5-5-5--
E--3----3--------------3-------------

Outro
G-------------------------------
D-------------------------------
A--5-5--3-3--5-5--3-3--5-5-3-3--
E-------------------------------

Intro X1
Verse X4
(Rest...guitar solo thing)
Verse X8
Chorus X1
Verse X8
Chorus X1
Verse X8
Bridge X1
Verse X8
Outro X1

This tab was created by Christian Mangs. Email me at:
Shadow145@hotmail.com
  development and support by
dmitry ivanov