rock
 
|tablatures   |lyrics   |discussion forums   |more tabs @ XGuitar.com

Green Day tabs

Armatage Shanks bass tab

Song: Armatage Shanks
Artist: Green Day
Album: Insomniac

Intro
Gb-----------------------------------------
Db-----------------------------------------
Ab--6-6-6-6-6-6-6-6-6-6-6-6-6-6-6-6-5-4-0--
Eb-----------------------------------------

Verse			       X2
Gb-------------------------------|------------------------------------------------
Db-------------------------------|------------------------------------------------
Ab--0-0-0-0-0-0-4h5-5-5-5-5-5-5--|--------------5-5-5-5-5-5--------------7p5------
Eb-------------------------------|--2-2-2-2-2-2-------------0-0-0-0-0-0------7p5--

Chorus
Gb---------------------------------------------------
Db---------------------------------------------------
Ab--5-5-5-5-5-5-0-0-0-0-0-0-7-7-7-7-7-7-0-0-0-0-0-0--
Eb---------------------------------------------------

Gb-----------------------------------------------
Db-----------------------------------------------
Ab--5-5-5-5-5-5-0-0-0-0-0-0-0-7-7-7-7-7-7-5-4-0--
Eb-----------------------------------------------

Bridge			     X2
Gb-----------------------------|---------------------------------
Db-----------------------------|--------------7-5-7--------------
Ab--0-0-0-0-0-0-5--------------|--5-5-5-5-5-5-------7-7-7-7-7-7--
Eb----------------2-2-2-2-2-2--|---------------------------------
			     X2
Gb-----------------------------|-----------------------
Db-----------------------------|--------------7-5-7----
Ab--0-0-0-0-0-0-5--------------|--5-5-5-5-5-5-------7--
Eb----------------2-2-2-2-2-2--|-----------------------


Last Chorus
Gb---------------------------------------------------
Db---------------------------------------------------
Ab--5-5-5-5-5-5-0-0-0-0-0-0-7-7-7-7-7-7-0-0-0-0-0-0--
Eb---------------------------------------------------

Gb-----------------------------------------------------
Db-----------------------------------------------------
Ab--5-5-5-5-5-5-0-0-0-0-0-0-0-7-7-7-7-7-7-7-7-7-7-7-7--
Eb-----------------------------------------------------

Intro X1
Verse X2
Chorus X1
Verse X2
Chorus X1
Bridge X1
Chorus X1
Last Chorus X1

This tab was created by Christian Mangs. Email me at:
Shadow145@hotmail.com
  development and support by
dmitry ivanov