rock
 
|tablatures   |lyrics   |discussion forums   |more tabs @ XGuitar.com

Green Day tabs

Are We The Waiting bass tab

Main Riff (Intro, Verse/Chorus) NO BASS in intro

G|-----------------------|
D|-----------------------|
A| ------------5~ -- 5~--|
E|--5~ -- 5~-------------|



Pre-Chorus

G|------------------|
D|------------------|
A|-------------5~ --|
E|-1~ -- 0~ --------|


ORDER:

Intro (no bass)
Verse (Main Riff x3)
Pre-Chorus x2
Chorus (Main Riff x2)
Verse (Main Riff x3)
Pre-Chorus x2
Outro (main riff x5, right into "St. Jimmy"
  development and support by
dmitry ivanov