rock
 
|tablatures   |lyrics   |discussion forums   |more tabs @ XGuitar.com

Green Day tabs

Android bass tab

Song: Android
Artist: Green Day
Album: Kerplunk

Intro
Gb--3h4--------------------------
Db-------------------------------
Ab------2-------0-0-0-0----------
Eb--------0-0-0---------2-2-2-2--

Gb-------------------------------
Db-------------------------------
Ab--2-2-2-------0-0-0-0----------
Eb--------0-0-0---------2-2-2-2--

Verse
Gb---------------------------4-4-----4-4--
Db-----------------------1-2-----0-2------
Ab--2-2-2-2-2-2-2-2--2-4------------------
Eb----------------------------------------

Chorus					   X3
Gb-------------------------------------------|----------------------------------------------
Db--------4----------------------------------|-------4--------------------------------------
Ab--2-2-2-----------0-0-0-0-------------2h4--|-2-2-2-----------0-0-0-0---------0-0-0-0-0-0--
Eb----------0-0-0-0---------2-2-2-2-2h4------|---------0-0-0-0---------2-2-2-2--------------

1st Bridge/Outro
Gb-------------------------------
Db-------------------------------
Ab--2-2-2-------0-0-0-0----------
Eb--------0-0-0---------2-2-2-2--

2nd Bridge		      X2
Gb------------------------------|---------------
Db------------------------------|---------------
Ab--2----0----------------------|--0-0-0-0-0-0--
Eb------------4----2-2-2-2-2-2--|---------------

Solo									    X3
Gb------------------4-----------------2---------------------------------------
Db----------------4-----------------2-----------------------------------------
Ab--2-2-2-2-2-2-2-----0-0-0-0-0-0-0--------------------------------------2h4--
Eb---------------------------------------4-4-4-4-4-4-4-2-2-2-2-2-2-2-2h4------

Gb------------------4-----------------2-------------------------------------------
Db----------------4-----------------2---------------------------------------------
Ab--2-2-2-2-2-2-2-----0-0-0-0-0-0-0----------------------------------0-0-0-0-0-0--
Eb---------------------------------------4-4-4-4-4-4-4-2-2-2-2-2-2-2--------------

Intro X1
Verse X2
Chorus X1
1st Bridge X2
Verse X2
Chorus X1
1st Bridge X2
2nd Bridge X1
1st Bridge X4
Solo X1
Outro X4

This tab was created by Christian Mangs. Email me at:
Bassman9@users.basstabarchive.com
  development and support by
dmitry ivanov