rock
 
|tablatures   |lyrics   |discussion forums   |more tabs @ XGuitar.com

Green Day tabs

American Idiot bass tab

Green Day - American Idiot
Standard tuning
Bassist - Mike Dirnt
Album - American Idiot
Tabbed by - Snowy

Main Riff (Verse)

G------------------------------------------------------------
D-------------------------------------------------------------
A------4-44-----4------------------------------------------------
E-4-44------2-2---4--2------------------------------------------------

Chorus ("Welcome to a new kind of tension....")

G------------------------------------------------------------
D-------------------------------------------------------------
A-44-4444-44-444----------------66-6666-4p0--------------------------------------
E----------------44-4444-44-4h6-------------44-4444-44p0h2-4---------------------------
                                            (miss this off at end of chorus's)
Outro

G------------------------------------------------------------
D-------------------------------------------------------------
A---44---------------------------------------------------------
E-4----4---------------------------------------------------------
  development and support by
dmitry ivanov