rock
 
|tablatures   |lyrics   |discussion forums   |more tabs @ XGuitar.com

Green Day tabs

All The Time bass tab

Green Day-All The Time (correction)
A lot of the green day tabs here are totally wrong.People just tab the
guitar chords without listening to the songs. This one is pretty close 
to what was here but a lot of the other ones suck


All the Time

Intro and Chorus
g--------------|	|-----------------|
d--------------|7 times	|-----------------|
a-7-7--5-------|	|---7-7-7-7-7-7-7-|
e----------5-0-|	|-0---------------|

Verse
g--------------------|
d--------------------|
a---------------555--|
e-4h5-5-555-333----0-|

Bridge
g-----------------|
d-----------------|
a---4h5-4---2h3-2-|
e-5-------3-------| 

From: SadButDru@aol.com
  development and support by
dmitry ivanov