rock
 
|tablatures   |lyrics   |discussion forums   |more tabs @ XGuitar.com

Green Day tabs

All By Myself guitar tab

Green Day (Dookie)

ALL BY MYSELF - tabbed by 


1st Part:

E-|-2----2----2----2----3----3----3----3--------------------------------------|
B-|---3----3----3----3----3----3----3----3------------------------------------|
G-|---------------------------------------------------------------------------|
D-|---------------------------------------------------------------------------|
A-|---------------------------------------------------------------------------|
E-|---------------------------------------------------------------------------|
                                                                               

2nd Part:                                                                               

E-|-4----4----4----4----5----5----5----5--------------------------------------|
B-|---5----5----5----5----5----5----5----5------------------------------------|
G-|---------------------------------------------------------------------------|
D-|---------------------------------------------------------------------------|
A-|---------------------------------------------------------------------------|
E-|---------------------------------------------------------------------------|
  development and support by
dmitry ivanov