rock
 
|tablatures   |lyrics   |discussion forums   |more tabs @ XGuitar.com

Green Day tabs

86 guitar tab


Date: Thurs, July 15 1999
From: Peter Ferragine (pferragine@interhop.net)
Group: Green Day
Album: Insomniac
Released: 1995 reprise records
Track: 7
Title: 86

pm - palm mute

**tune  step down**


intro/chorus

|-------------------------------------------|
|-------------------------------------------|
|-9-9-9-9-9---------------------------------|
|-9-9-9-9-9-6-6-6-6-6-7-7-7-7-7-7-7-7-7-7-7-|
|-7-7-7-7-7-6-6-6-6-6-7-7-7-7-7-7-7-7-7-7-7-|
|-----------4-4-4-4-4-5-5-5-5-5-5-5-5-5-5-5-|

verse
  pm_____________| |_____________| |___________| |___________|
|-----------------------------------------------------------------|
|-----------------------------------------------------------------|
|-----------------------------------------------------------------|
|-2-2-2-2-2-2-2-2-9-9-9-9-9-9-9-9-7-7-7-7-7-7-7-2-2-2-2-2-2-2-7-7-|
|-2-2-2-2-2-2-2-2-9-9-9-9-9-9-9-9-7-7-7-7-7-7-7-2-2-2-2-2-2-2-7-7-|
|-0-0-0-0-0-0-0-0-7-7-7-7-7-7-7-7-5-5-5-5-5-5-5-0-0-0-0-0-0-0-5-5-|

pre-chorus

|---------------------------------|
|---------------------------------|
|---------------------------------|
|-9-9-9-9-9-9-9-9-7-7-7-7-7-7-7-7-|
|-9-9-9-9-9-9-9-9-7-7-7-7-7-7-7-7-|
|-7-7-7-7-7-7-7-7-5-5-5-5-5-5-5-5-|

bridge

|--------------------------------------------------|
|--------------------------------------------------|
|--------------------------------------------------|
|-9-9-9-9-9-9-7------9-9-9-9-9-9-7-7-7-7-7-7-7-7-7-|
|-9-9-9-9-9-9-7------9-9-9-9-9-9-7-7-7-7-7-7-7-7-7-|
|-7-7-7-7-7-7-5------7-7-7-7-7-7-5-5-5-5-5-5-5-5-5-|

lyrics

what brings you around?
did you lose something last time you were here?
you'll never find it now
it's buried deep with your identity
so stand aside and let the next one pass
don't let the door kick you in the ass
there's no return from 86
don't even try
exit out the back
and never show your head around again
purchase your ticket and quickly take
the last train out of town
  development and support by
dmitry ivanov