rock
 
|tablatures   |lyrics   |discussion forums   |more tabs @ XGuitar.com

Green Day tabs

80 bass tab

80-Green Day 
off the album "Kerplunk"

Intro and Verse:
  *play each measure 4 times
G----7|----5|----5|----3|
D--5--|--3--|--2--|--1--|
A-----|-----|-----|-----|
E-----|-----|-----|-----|

Pre Chorus:
"Everything she does questions....."
G--------7----------|  
D-------------------|  
A--5-5-5---3-3-3-3-3|  
E-------------------|  

Chorus:
"If anyone can hear me..."
G------------------7---------9-------------------|
D------------------------------------------------|
A----------5-5-5-5---7-7-7-7---3-3-3-3-3-3-3-3-3-|
E--3-3-3-3---------------------------------------|

"And I end up talkin to myself...."
G----------------------------------------7-|
D--------------------------------5h7p5-----|
A-------------------3-3-3-3-3-3--------5---|     Repeat
E--3-3-3-3--1-1-1-1------------------------|

Back to chorus
Then...

"I do not mind if this goes on..."
G-------------------7---------------|
D-----------------------------------|
A--3-3-3-3--5-5-5-5-----------------|
E----------------------3-3-3-3-1-3-3|

Then...
G-------------------7----------------------------------------------------7
D------------------------------------------------------------------5/7---- 
A--3-3-3-3--5-5-5-5-----------------3-3-3-3-3-3-3--5-5-5-5-5-5-5------5---
E--------------------3-3-3-3-1-3-3----------------------------------------

back to verse 
back to chorus
outro same as verse

Thats it, its easy ,its fun, a its a good song.
Any question and such E-Mail me at HappyCow13@aol.com
           ~~Teddy
  development and support by
dmitry ivanov