rock
 
|tablatures   |lyrics   |discussion forums   |more tabs @ XGuitar.com

Green Day tabs

409 In Your Coffeemaker guitar tab


Date: Sun, March 14 1999
From: Peter Ferragine (pferragine@interhop.net)
Group: Green Day
Album: 1039/smoothed out slappy hours
Released: 1990 lookout records
Track: 13
Title: 409 in your coffeemaker

Eb tuning


intro

|-------------|
|-------------|
|-5-5-5-------|
|-5-5-5-4-4-5-|
|-3-3-3-4-4-5-|
|-------2-2-3-|

verse

|-----------------------------------------------------------------|
|-----------------------------------------------------------------|
|-----------------------------------------------------------------|
|-5-5-5-5-5-5-5-5-3-3-3-3-3-3-3-3-5-5-5-5-5-5-5-5-3-3-3-3-3-3-3-3-|
|-5-5-5-5-5-5-5-5-3-3-3-3-3-3-3-3-5-5-5-5-5-5-5-5-3-3-3-3-3-3-3-3-|
|-3-3-3-3-3-3-3-3-1-1-1-1-1-1-1-1-3-3-3-3-3-3-3-3-1-1-1-1-1-1-1-1-|

chorus

|-----------------------------------------------------------------
|-----------------------------------------------------------------
|-5-5-5-5-5-5-5-5-----------------5-5-5-5-5-5-5-5-----------------
|-5-5-5-5-5-5-5-5-5-5-5-5-5-5-5-5-5-5-5-5-5-5-5-5-5-5-5-5-5-5-5-5-
|-3-3-3-3-3-3-3-3-5-5-5-5-5-5-5-5-3-3-3-3-3-3-3-3-5-5-5-5-5-5-5-5-
|-----------------3-3-3-3-3-3-3-3-----------------3-3-3-3-3-3-3-3-

 -------------------------------------------------|
 -------------------------------------------------|
 -5-5-5-5-5-5-5-5-----------------5-5-5-5-7-7-7-7-|
 -5-5-5-5-5-5-5-5-5-5-5-5-5-5-5-5-5-5-5-5-7-7-7-7-|
 -3-3-3-3-3-3-3-3-5-5-5-5-5-5-5-5-3-3-3-3-5-5-5-5-|
 -----------------3-3-3-3-3-3-3-3-----------------|

lyrics

i sit in the state of a daydream
with all of your words flying over my head
even more time gets wasted
in a daze   
it should seem obvious to you
your screams and cries are never going to work
and all of your time gets wasted
in my daze
and i'm looking back now
at where i have gone wrong
and why i could not seem to get along
my interests are longing
to break through these chains
these chains that control
my future's aim   
i sit in the state of a daydream
with all of your words flying over my head
even more time gets wasted
in a daze
maybe i'm just too damn lazy
or maybe i was just brainwashed to think that way
and all of your time gets wasted
in my daze
  development and support by
dmitry ivanov