rock
 
|tablatures   |lyrics   |discussion forums   |more tabs @ XGuitar.com

Green Day tabs

16 guitar tab


Date: Sat, January 9 1999
From: Peter Ferragine (pferragine@interhop.net)
Group: Green Day
Album: 1039/smoothed out slappy hours
Released: 1990 lookout records
Track: 7
Title: 16

pm - palm mute


intro

|--------------------------------|
|--------------------------------|
|-4-4-4-4-2-2-2-2-1-1-1-4--4-4-4-|
|-4-4-4-4-2-2-2-2-2-2-2-4--4-4-4-|
|-2-2-2-2-0-0-0-0-2-2-2-2--2-2-2-|
|--------------------------------|

verse
pm_____________________|
|--------------------------------|
|--------------------------------|
|-4-4-4-4-2-2-2-2-1-1-1-4--4-4-4-|
|-4-4-4-4-2-2-2-2-2-2-2-4--4-4-4-|
|-2-2-2-2-0-0-0-0-2-2-2-2--2-2-2-|
|--------------------------------|

chorus

|-------------------------|
|-------------------------|
|-5-5-5-7-7-7-4-4-4-4-4-4-|
|-5-5-5-7-7-7-4-4-4-4-4-4-|
|-3-3-3-5-5-5-2-2-2-2-2-2-|
|-------------------------|

lyrics

every night i dream the same dream of getting older all the time
i ask you now, what does this mean? are these problems just in my mind?
things are easy when you are a child 
but now these pressures have dropped on my head
the length i've gone are just long miles
would they be shorter if i were dead
everytime i look in my past i always wish i was there
i wish my youth would forever last why are these times so unfair
look at my friends and see what they've done
ask myself why they had to change
i like them better when they were young 
now all these times are rearranged i look down and stand there and cry
nothing ever will be the same the sun is rising now i ask why
the clouds now fall and here comes the rain
  development and support by
dmitry ivanov