rock
 
|tablatures   |lyrics   |discussion forums   |more tabs @ XGuitar.com

Green Day tabs

1000 Hours guitar tab


Date: Fri, March 19 1999
From: Peter Ferragine (pferragine@interhop.net)
Group: Green Day
Album: 1039/smoothed out slappy hours
Released: 1990 lookout records
Track: 15
Title: 1,000 hours

x - scratch

Eb tuning


intro/verse

|-------------------------------------------------------------------|
|-------------------------------------------------------------------|
|-------------------------------------------------------------------|
|-6-6-6-6-6-6-6-6-6-6-6-6-6-6-6-6-6-6-6-6-6-6-6-6-6-6-6-6-6-6-6-6-6-|
|-6-6-6-6-6-6-6-6-6-6-6-6-6-6-6-6-6-6-6-6-6-6-6-6-6-6-6-6-6-6-6-6-6-|
|-4-4-4-4-4-4-4-4-4-4-4-4-4-4-4-4-4-4-4-4-4-4-4-4-4-4-4-4-4-4-4-4-4-|

|---------------------------------------------------------------|
|---------------------------------------------------------------|
|---------------------------------------------------------------|
|-6-x-6-6--6-x-6-6--6-x-6-6--6-x-6-6--6-x-6-6--6-x-6-6--6-x-6-6-|
|-6-x-6-6--6-x-6-6--6-x-6-6--6-x-6-6--6-x-6-6--6-x-6-6--6-x-6-6-|
|-4-x-4-4--4-x-4-4--4-x-4-4--4-x-4-4--4-x-4-4--4-x-4-4--4-x-4-4-|

chorus

|-------------------------------------------------------------|
|-------------------------------------------------------------|
|-------------------------------------------------------------|
|-3-3-3-3-3-4-4-4-4-4-3-3-3-3-3-4-4-4-4-4-3-3-3-3-3-4-4-4-4-4-|
|-3-3-3-3-3-4-4-4-4-4-3-3-3-3-3-4-4-4-4-4-3-3-3-3-3-4-4-4-4-4-|
|-1-1-1-1-1-2-2-2-2-2-1-1-1-1-1-2-2-2-2-2-1-1-1-1-1-2-2-2-2-2-|

lyrics

starlit night, the moon is shining bright, you are the one i need
up at your window, i see a shadow, silhouette of your grace
here's this flower, i picked for all the hours, that you've spent with me
the one i love, that i've been dreaming of, sailing across the sea
let my hands flow through your hair, moving closer a kiss we'll share
passionate love to be all night long, we'll never break as one too strong
nothing's more than what our love is for
as i kiss your cheek oh so softly
hands flowing down my back 1,000 hours i'll never leave 
our romance is a love trance, and now we'll never part
1,000 hours of such a love shower
we'll never stop once we start
  development and support by
dmitry ivanov