rock
 
|tablatures   |lyrics   |discussion forums   |more tabs @ XGuitar.com

Grateful Dead tabs

Truckin' bass tab

Grateful Dead - Truckin
Submitted By: RUN1911
EMail: corcster42@hotmail.com

Tuning: Standard (E A D G)



Part A

   repeat untill change
G|-----------------------||
D|--------2---------------||
A|------2---------------||
E|--0-3------------------||
   Truckin' got my chips cashed in

G|----------2--------||
D|--------2----------||
A|-0--4---------------||
E|------------------||
Keep Truckin', like the do-dah man

G|----------4-------||
D|----1--4----------||
A|--2---------------||
E|------------------||
togather, moreaor less in life

G|----------2----------------||
D|--------2----------------2-||
A|-0--4-----------------2----||
E|-----------------0--3------||
Just keep truckin         on

Part B



G|--------------------------------------||
D|---------------2----------------------||
A|----------2h4----4p2-----------------||
E|--0--2h4--------------4p2-------------||


Part C

G|---2-repeat--2--0--------------2-----||
D|-------------------2--4--2----------||
A|-------------------------------------||
E|-------------------------------------||

Layout
A
B
A
B
A
B
A
C
B
A
B
A
B
C
A
  development and support by
dmitry ivanov