rock
 
|tablatures   |lyrics   |discussion forums   |more tabs @ XGuitar.com

Grateful Dead tabs

The Golden Road (To Unlimited Devotion) guitar tab

GRATEFUL DEAD - SAN FRANCISCO'S GRATEFUL DEAD
tabbed by MaxxDaddy

The Golden Road (To Unlimited Devotion)

Intro:

-----------------------------------------------------------
-----------------------------------------------------------
-----------------------------------------------------------
-4--4--4---4-5/7---4--4--4---4--------------------------4--
-5--5--5---5-------5--5--5---5-3\2--2--2--2--2--------3/5~-
------------------------------------3--3--3--3---3-3/5-----

D                           C6
See that girl, barefootin' along,
G                                       D
Whistlin' and singin', she's a carryin' on.
D                                            C6
There's laughing in her eyes, dancing in her feet,
        F          C                   G           D
She's a neon-light diamond and she can live on the street.

D                        C6
Hey hey, hey, come right away
G                             D
Come and join the party every day.

Well everybody's dancin' in a ring around the sun
Nobody's finished, we ain't even begun.
So take off your shoes, child, and take off your hat.
Try on your wings and find our where it's at.

Hey hey, hey, come right away
Come and join the party every day.

Solo (over intro figure)
(envelope filter on guitar)
-------------------------------------------------------------------
-------------------3--3~--5(7)5p3---3~-----------------------------
------2/4-2~---2h4----------------4------------14---14-----14-16(18)
-/4~------------------------------------12-/16---16~--/16----------
-------------------------------------------------------------------
-------------------------------------------------------------------

-------------------------------------17------------
----------15----17p15----15-17-17(19)--(19)17-15~~-
-14-15-16----16-------16---------------------------
---------------------------------------------------
---------------------------------------------------
---------------------------------------------------

Take a vacation, fall out for a while,
Summer's comin' in, and it's goin' outa style
Well, lie down smokin', honey, have yourself a ball
Your mother's down in Memphis, won't be back 'till the fall.

Hey hey, hey, come right away
Come and join the party every day.

Outro:
(repeat intro and then play this chord:)
-----
-7---
-8---
-7---
-----
-6---
  development and support by
dmitry ivanov