rock
 
|tablatures   |lyrics   |discussion forums   |more tabs @ XGuitar.com

Grateful Dead tabs

Sitting On Top Of The World guitar tab

GRATEFUL DEAD - SAN FRANCISCO'S GRATEFUL DEAD
tabbed by MaxxDaddy

Sittin' On Top Of The World

----------------------------------------
----------------------------------------
----------------------------------------
----------------------------------------
------------0---0-----------0---0-------
--0--3--4-----3------3-4------3-----3-4-

(shuffle beat)
-------------------------------------2---2---2---2---2---2---2---2-
---2---2---2---2----2---2---2---2----3---3---3---3---3---3---3---3-
---2---2---2---2----2---2---2---2----2---2---2---2---2---2---2---2-
---2---2---2---2----2---2---2---2--0---------------0---------------
-0----------------0--------------------3---2---0-------3---2---0---
-----3---2---0--------3---2---0------------------------------------

            A
Mississippi River so big and wide,
             D
Blond haired woman on the other side.
          A                            E
Now she's gone, gone, gone and I don't worry
           A          D                *C F C  
'Cause I'm sitting on top of the world.

*      C  F  C
--------------
------1--1--1-
------0--2--0-
------2--3--2-
-1/2--3-----3-
--------------

figure a:
------------------------------------
--------2---2-----------2---2-------
--------2---2-----------2---2-------
--------2---2-----------2---2-------
--------0---0-----------0---0-------
--3-4-----3------3-4------3-----3-4-

I worked all summer, spring and fall,
Blond haired woman the cause of it all.
Now she's gone, gone, gone and I don't worry
           A          D                 C F C   C Bb C
'Cause I'm sitting on top of the world.

C Bb C

  C
----------------13(15)---13-11--13p11--11---------------------
--------13-13~----------------13-----13--13-13p11--11h13-11---
-----12------------------------------------------12--------12-
-/14----------------------------------------------------------
--------------------------------------------------------------
--------------------------------------------------------------
 F 
-----------------------------------------------------------------------
-----------------------------------------------------------------------
-10p8---8h10-8-------------------------------------------------------8-
-----10-------10~--10p8---8h10-8---------------------------8-10-8-10---
-----------------------10--------10--10p8----8h10-8----/10-------------
------------------------------------------11--------11-----------------
  C                                 G  
--------8---8-------------8---8--------------------------------13(15)-
-------8--8---8----------8--8---8--/13-13p11--11-13-11---11-13--------
-10(12)--------(12)10(12)-------------------12--------12--------------
----------------------------------------------------------------------
----------------------------------------------------------------------
----------------------------------------------------------------------
 C                                        C   Bb  C 
-13p11-13-13(15)--13p11--11-13-11----11--------------
-----------------------13---------13-----/13--11-13\-
-----------------------------------------------------
-----------------------------------------------------
-----------------------------------------------------
-----------------------------------------------------

back to figure a:

I saw her in Dallas and El Paso.
Said, "Come back baby, I need you so."
Now she's gone, gone, gone and I don't worry
'Cause I'm sitting on top of the world.

Mississippi River so big and wide,
Blond haired woman on the other side.
Now she's gone, gone, gone and I don't worry
'Cause I'm sitting on top of the world.

Outro:

---------------------------------------------------------
---------------------------------------------------------
------------------------------5-7(9)7p5-5h7-7-5----------
----------------------5---5h7-------------------7--5-/7--
----3---3h5-3---3-5/7---7--------------------------------
-/5---5-------5------------------------------------------

----------------8-10(12)10p8------8h10p8------8--------------------
---------8-8-10--------------10-8--------10p8---10--8h10p8-----8---
-5-5-7/9---------------------------------------------------9p7---9-
-------------------------------------------------------------------
-------------------------------------------------------------------
-------------------------------------------------------------------

--------------------------
--------------------------
--------------------------fade out
-9\7-5---5----------------
-------7---7--7\5-3---3---
--------------------5---5-
  development and support by
dmitry ivanov