rock
 
|tablatures   |lyrics   |discussion forums   |more tabs @ XGuitar.com

Grateful Dead tabs

Shakedown Street bass tab

8/13/03
grateful dead - shakedown street
from 'shakedown street' (arista)
tabbed by poozoodle (theFro on musicianforums)
comments/critiques: lookitsawookie@hotmail.com



 4/4
  intro						main verse			
|----------|-----------|---------|-----------|---------------5-|-7------------|
|----------|-----------|---------|-----------|--------7-10-7---|---5h7-5h7----|
|-5--------|-----------|5--------|-----------|-5--5------------|--------------|
|----------|-----------|---------|-----------|-----------------|--------------|


verse 2 -"maybe because its midnight" (phil basically doodles around in E7, D7, and A7 chords where appropriate)
|--------|--------|--------|--------|--------|--------|--------|----------|---------|
|---E----|---D----|----E---|----D---|----E---|----D---|----A---|----------|12/------|
|--------|--------|--------|--------|--------|--------|--------|55-555-5-5|---------|
|--------|--------|--------|--------|--------|--------|--------|----------|---------|


 "don't tell me"	       chorus - "nothin's shakin'"
|----------|------------|--------------3-|-5------------|
|----------|------------|--------5-8-5---|---3h5-3h5----|
|-5--------|-3----------|-3--3-----------|--------------|
|----------|-------5/8--|----------------|--------------|



***************************************************************************************
* Generated using Power Tab Editor by Brad Larsen - http://powertab.guitarnetwork.org *
***************************************************************************************
  development and support by
dmitry ivanov