rock
 
|tablatures   |lyrics   |discussion forums   |more tabs @ XGuitar.com

Grateful Dead tabs

Newnew Minglewood Blues guitar tab

GRATEFUL DEAD - SAN FRANCISCO'S GRATEFUL DEAD
tabbed by MaxxDaddy

New, New Minglewood Blues

Intro:

||----------------------------------||
||-------------5----3---------------||
||-------------5----3---------------||
||---3--3h5p3--5----3--/5-3---------||2x
||-/5--5-------3----1-------5-3-1---||
||--------------------------------3-||

C               
I was born in a desert,
Bb                 G
Raised in a lion's den
C               
I was born in a desert,
Bb                 G
Raised in a lion's den
       D           
And my number one occupation
                             G
Is stealing women from their men

-----------------
-----------------
-----------------
-3h5-3-----------
-------5-3-------
-----------1-3~~-

(If your ever in Memphis,
Best stop down minglewood)2X
When I take a walk down there,
All the women sure look good

Solo:
 C                                     Bb                          G     
------------------------------------------13--13--12-12--10-----------
--------11----11-13(15)-(15)13p11------/15--15----13-13--11(13)11-12\-
-10/12~----12---------------------12------------------------------12\-
----------------------------------------------------------------------
----------------------------------------------------------------------
----------------------------------------------------------------------
                                            C         
--------------------------------------13----15(17)-15~-13h15p13--13-----
----11---11-13(15)13p11----11-11~--/15---15--------------------15---15\-
-/12--12----------------12----------------------------------------------
------------------------------------------------------------------------
------------------------------------------------------------------------
------------------------------------------------------------------------
 Bb                                                   G 
----------------------------------------------------------
-13(15)13p11---11-13p11--11-13p11--11-13(15)13p11--11-11~-
-------------12--------12--------12--------------12-------
----------------------------------------------------------
----------------------------------------------------------
----------------------------------------------------------
                               C/D
---------------------------||---------------||
-13(15)13p11--11-11~-------||-13(15)13p11---||
------------12-------10h12-||------------12-||4x
---------------------------||---------------||
---------------------------||---------------||
---------------------------||---------------||
 G7
-13-13-13-13-13-13-13-13-13-13-13-13~~~-
-12-12-12-12-12-12-12-12-12-12-12-12~~~-
-12-12-12-12-12-12-12-12-12-12-12-12~~~-
-12-12-12-12-12-12-12-12-12-12-12-12~~~-
----------------------------------------
----------------------------------------
(If you can't believe me,
Gonna make it hard to believe in you)2x
Cause we all need each other,
Well all you know it's true

(I was born in a desert,
Raised in a lion's den)2X
And my number one occupation
Is stealing women from their men

Outro:

-8~~-----------------------------------------13--13-15(18)-15~-
-11~--11(13)11p8------8------8------8-8~---15--15--------------
-9~~------------10(12)-10(12)-10(12)---------------------------
-8~~-----------------------------------------------------------
---------------------------------------------------------------
---------------------------------------------------------------

-15-13------------------------------------------------------------
-------15-13\11----13(15)13p11----13-13~--15-15-15-15-13-13-13-13-
----------------12-------------12---------------------------------
------------------------------------------------------------------
------------------------------------------------------------------
------------------------------------------------------------------

--------------------------------
-11-11-11-11-8-------8-11(13)~--
---------------10(12)-----------
--------------------------------  fade
--------------------------------
--------------------------------
  development and support by
dmitry ivanov