rock
 
|tablatures   |lyrics   |discussion forums   |more tabs @ XGuitar.com

Grateful Dead tabs

If I Had The World To Give guitar tab

E --------------------------------------------------------------------
A --------------------------------------------------------------------
D --------------------------------------------------------------------
G -------------------2--1---------------------------------------------
B -5-4-2-4-5---4---2--------------------------------------------------
E --------------------------------------------------------------------
repeat 4 times

on 4th time add
E ---------------------------------------------------------------------
A ---------------------------------------------------------------------
D ---------5-----------------------------------------------------------
G 5-4-2-5--------------------------------------------------------------
B ---------------------------------------------------------------------
E ---------------------------------------------------------------------


Thats all i could figure out for now
  development and support by
dmitry ivanov