rock
 
|tablatures   |lyrics   |discussion forums   |more tabs @ XGuitar.com

Grateful Dead tabs

Good Lovin bass tab

Grateful Dead - Good Lovin'
Tab by GratefulDead1967 (Flyd188@aol.com)

 main riff
G|------------------|
D|------------------|
A|3-3---------------|
E|----1-1--3-3-3-1-1|

 riff 1
G|--------------------|
D|--------------------|
A|3-------------1-----|
E|--1-3--1-3-1----3-1-|

yeah thats pretty much it. since its short ignore the rest of this tab

blah blah blah blah blah blah blah blah blah blah blah
blah blah blah blah blah blah blah blah blah blah
blah blah blah blah blah blah blah blah blah
blah blah blah blah blah blah blah blah
blah blah blah blah blah blah blah
blah blah blah blah blah blah
blah blah blah blah blah
blah blah blah blah
blah blah blah
blah blah
blah
  development and support by
dmitry ivanov