rock
 
|tablatures   |lyrics   |discussion forums   |more tabs @ XGuitar.com

Grateful Dead tabs

Friend Of The Devil bass tab

Friend Of The Devil - Grateful Dead
Tab by GratefulDead1967 (Flyd188@aol.com)

 main riff
G|-0--------------|
D|---4-2-0--------|
A|---------3-2-0--|
E|---------------3|

 chorus
G|---|
D|---|
A|-5-|
E|---|
 "set out runnin..."

G|---|
D|---|
A|-0-|
E|---|
 "friend of the devil..."

G|---|
D|---|
A|-5-|
E|---|
 "if i get home..."

G|--------------------|-------------|
D|--------------------|-------------|
A|-0------------------|--------5----|
E|--------------------|-------------|
 "just might get..."     "...tonight"

 bridge


G|---|
D|---|
A|-5-|
E|---|
 "got 2 reasons..."


G|---|
D|---|
A|-3-|
E|---|
 "first ones named..."


G|---|
D|---|
A|-5-|
E|---|
 "2nd one is prison..."


G|-----------------------|---------------------------|
D|-----------------------|---------------------------|
A|-----0-----------------|-------3---------------5---|
E|-----------------------|---------------------------|
 "and if he catches..."    "ill spend my life in jail"
  development and support by
dmitry ivanov