rock
 
|tablatures   |lyrics   |discussion forums   |more tabs @ XGuitar.com

Grateful Dead tabs

Easy Wind guitar chords

Grateful Dead - Easy Wind
Submitted By: RUN1911
EMail: corcster42@hotmail.com


E7
I been balling a shiny black steel jack-hammer,
     A7
Been chippin' up rocks for the great highway,

E7   A7

     E7
I'll live five years if I take my time,
A7
Ballin' that jack and a drinkin' my wine.

E7    A7

I been chippin' them rocks from dawn till doom,
While my rider hide my bottle in the other room.
Doctor say better stop ballin' that jack,
If I live five years I gonna bust my back, yes I will.

Chorus Intro


A7                          E7
Easy wind cross the Bayou today
               A7
Cause there's a whole lotta women, mama,
                            E7
Out in red on the streets today.
        B
And the river keeps a talkin',
        A     C                E
But you never heard a word it said.

Chorus Outro


Gotta find a woman be good to me,
Won't hide my liquor try to serve me tea,
Cause I'm a stone jack baller and my heart is true
And I'll give everything that I got to you, yes I will.

Easy wind going cross the Bayou today
There's a whole lotta women
Out in red on the streets today.
And the rivers keep a talkin',
But you never heard a word it said.




Intro



(^) Slide Up  (\) Slide Down  (h) Hammer On  (p) Pull Off  (b) Bend


E-----------------------------------------------------------
B-----------------------------------------------------------
G-----------------------------------------------------------
D--------2--------2--------2--------2--------2---2-----2-2--
A--2--------5--5-----4--4-----3--3-----2--2-----------------
E-----0---------------------------------------------0-------






Chorus Intro



(^) Slide Up  (\) Slide Down  (h) Hammer On  (p) Pull Off  (b) Bend


E------------------------------------3----------------------
B------------------------------------2----------------------
G------------------------------------2----------------------
D---5^7---7p5--7p5-----5--5------0---2----------------------
A-------------------7--------7-------0----------------------
E-----------------------------------------------------------



Chorus Outro



(^) Slide Up  (\) Slide Down  (h) Hammer On  (p) Pull Off  (b) Bend


    E            A            A#o    E
E-----------------------------------------------------------
B--------5p3-----5----5p3-----5-----------------------------
G---3^4-------4------------4------4--4----------------------
D-----------------------------------------------------------
A-----------------------------------------------------------
E-----------------------------------------------------------
  development and support by
dmitry ivanov