rock
 
|tablatures   |lyrics   |discussion forums   |more tabs @ XGuitar.com

Eric Clapton Cream tabs

World Of Pain guitar tab

DISRAELI GEARS - CREAM
transcribed by MaxxDaddy

3. WORLD OF PAIN  by Gail Collins and Felix Pappalardi

F          A      Dm  Dm/C   G
Outside my window is a tree.
F          A      Dm  Dm/C   G
Outside my window is a tree.
               B
There only for me.
       D             C#          F#
And it stands in the gray of the city,
            Bm           E        C#
No time for pity for the tree or me.

  A     D             A
  There is a world of pain
  D              A
  In the falling rain
  D
  Around me.

F          A      Dm  Dm/C   G
Is there a reason for today?
F          A      Dm  Dm/C   G
Is there a reason for today?
         B  
Do you remember?
       D             C#          F#
I can hear all the cries of the city,
            Bm           E        C#
No time for pity for a growing tree.

  Chorus

Solo:
-------------------------------------------------------------------
----------------------------------------------------------12-------
-14~~-12-14(17)-14(17)-14(17)-14-12-14(17)-14-12-14-12-14----14-12-
-------------------------------------------------------------------
-------------------------------------------------------------------
-------------------------------------------------------------------

-------------------------------------------------------------------
----------13----------13(15)13----13-12----------------------------
-14-12-14----14-12-14----------14-------14-12----12-14-12----12h14-
----------------------------------------------14----------14-------
-------------------------------------------------------------------
-------------------------------------------------------------------

------------5----------------------
--------------8-5------------------
-14--12~~---------7(9)-7-5--7-5--5-
-----------------------------------
-----------------------------------
-----------------------------------


Repeat First Verse

  Chorus

Outro Solo similar to first solo
  development and support by
dmitry ivanov