rock
 
|tablatures   |lyrics   |discussion forums   |more tabs @ XGuitar.com

Eric Clapton Cream tabs

Wonderful Tonight bass tab

Date: Thu, 28 Mar 2002 15:11:00 +0200
From: "Jan Bjorklund" 
Subject: c/clapton_eric/wonderful_tonight.btab

eric clapton_wonderful_tonight

TablEdited by Jan Bjorklund   
You are welcome to request for tabs!
Fingering and positions as suggested by TablEdit, please use common sense.


TablEdited by Jan Bjorklund
Tuning : E A D G 	Time Signature: 4/4

  |               |               |               |
|0-------------------------------------------------------0-------|
|----------------------------------------------------------------|
|----------------------------------------------------------------|
|----------------------------------------------------------------|

  |               |               |               |
|----------------------------------------------------------------|
|4-------------------------------------------------------0-------|
|----------------------------------------------------------------|
|----------------------------------------------------------------|

  |               |               |               |
|----------------------------------------------------------------|
|----------------------------------------------------------------|
|3-------------------------------------------------------3-------|
|----------------------------------------------------------------|

  |               |               |               |
|------------------------------------------------2---------------|
|0---------------2---------------4-------------------------------|
|----------------------------------------------------------------|
|----------------------------------------------------------------|

  |               |               |               |
|0-------------------------------------------------------0-------|
|----------------------------------------------------------------|
|----------------------------------------------------------------|
|----------------------------------------------------------------|

  |               |               |               |
|----------------------------------------------------------------|
|4-------------------------------------------------------0-------|
|----------------------------------------------------------------|
|----------------------------------------------------------------|

  |               |               |               |
|----------------------------------------------------------------|
|----------------------------------------------------------------|
|3-------------------------------------------------------3-------|
|----------------------------------------------------------------|

  |               |               |               |
|------------------------------------------------2---------------|
|0---------------2---------------4-------------------------------|
|----------------------------------------------------------------|
|----------------------------------------------------------------|

  |               |               |               |
|0-------------------------------------------------------0-------|
|----------------------------------------------------------------|
|----------------------------------------------------------------|
|----------------------------------------------------------------|

  |               |               |               |
|----------------------------------------------------------------|
|4-----------------------------------------------4-------0-------|
|----------------------------------------------------------------|
|----------------------------------------------------------------|

  |               |               |               |
|----------------------------------------------------------------|
|----------------------------------------------------------------|
|3-------------------------------------------------------3-------|
|----------------------------------------------------------------|

  |               |               |               |
|----------------------------------------------------------------|
|0-----------------------------------------------2---------------|
|----------------------------------------------------------------|
|----------------------------------------------------------------|

  |               |               |               |
|0-------------------------------------------------------0-------|
|----------------------------------------------------------------|
|----------------------------------------------------------------|
|----------------------------------------------------------------|

  |               |               |               |
|----------------------------------------------------------------|
|4-------------------------------------------------------0-------|
|----------------------------------------------------------------|
|----------------------------------------------------------------|

  |               |               |               |
|----------------------------------------------------------------|
|----------------------------------------------------------------|
|3-------------------------------------------------------3-------|
|----------------------------------------------------------------|

  |               |               |               |
|----------------------------------------------------------------|
|0-------------------------------------------------------0-------|
|----------------------------------------------------------------|
|----------------------------------------------------------------|

  |               |               |               |
|----------------------------------------------------------------|
|----------------------------------------------------------------|
|3-------------------------------------------------------3-------|
|----------------------------------------------------------------|

  |               |               |               |
|----------------------------------------------------------------|
|0-------------------------------2---------------4---------------|
|----------------------------------------------------------------|
|----------------------------------------------------------------|

  |               |               |               |
|0-----------------------0---------------------------------------|
|--------------------------------4-----------------------4-------|
|----------------------------------------------------------------|
|----------------------------------------------------------------|

  |               |               |               |
|----------------------------------------------------------------|
|2-------------------------------0-----------------------0-------|
|----------------------------------------------------------------|
|----------------------------------------------------------------|

  |               |               |               |
|----------------------------------------------------------------|
|----------------------------------------------------------------|
|3-------------------------------------------------------3-------|
|----------------------------------------3-----------------------|

  |               |               |               |
|----------------------------------------------------------------|
|0-------------------------------2---------------4---------------|
|----------------------------------------------------------------|
|----------------------------------------------------------------|

  |               |               |               |
|0-------------------------------------------------------0-------|
|----------------------------------------------------------------|
|----------------------------------------------------------------|
|----------------------------------------------------------------|

  |               |               |               |
|----------------------------------------------------------------|
|4-------------------------------------------------------0-------|
|----------------------------------------------------------------|
|----------------------------------------------------------------|

  |               |               |               |
|----------------------------------------------------------------|
|----------------------------------------------------------------|
|3-------------------------------------------------------3-------|
|----------------------------------------------------------------|

  |               |               |               |
|------------------------------------------------2---------------|
|0-------------------------------2-------------------------------|
|----------------------------------------------------------------|
|----------------------------------------------------------------|

  |               |               |               |
|0-------------------------------------------------------0-------|
|----------------------------------------------------------------|
|----------------------------------------------------------------|
|----------------------------------------------------------------|

  |               |               |               |
|----------------------------------------------------------------|
|4-------------------------------------------------------0-------|
|----------------------------------------------------------------|
|----------------------------------------------------------------|

  |               |               |               |
|----------------------------------------------------------------|
|----------------------------------------------------------------|
|3-------------------------------------------------------3-------|
|----------------------------------------------------------------|

  |               |               |               |
|----------------------------------------------------------------|
|0-------------------------------2---------------4---------------|
|----------------------------------------------------------------|
|----------------------------------------------------------------|

  |               |               |               |
|0-------------------------------------------------------0-------|
|----------------------------------------------------------------|
|----------------------------------------------------------------|
|----------------------------------------------------------------|

  |               |               |               |
|----------------------------------------------------------------|
|4-----------------------------------------------0---------------|
|----------------------------------------------------------------|
|----------------------------------------------------------------|

  |               |               |               |
|----------------------------------------------------------------|
|----------------------------------------------------------------|
|3---------------------------------------------------------------|
|--------------------------------------------------------3-------|

  |               |               |               |
|----------------------------------------------------------------|
|0---------------------------------------0-----------------------|
|--------------------------------------------------------4-------|
|----------------------------------------------------------------|

  |               |               |               |
|----------------------------------------------------------------|
|----------------------------------------------------------------|
|3-------------------------------------------------------3-------|
|------------------------------------------------3---------------|

  |               |               |               |
|----------------------------------------------------------------|
|0-----------------------0-------2---------------4---------------|
|----------------------------------------------------------------|
|----------------------------------------------------------------|

  |               |               |               |
|0---------------------------------------------------------------|
|--------------------------------4-----------------------4-------|
|----------------------------------------------------------------|
|----------------------------------------------------------------|

  |               |               |               |
|----------------------------------------------------------------|
|2-------------------------------0---------------2-------0-------|
|----------------------------------------------------------------|
|----------------------------------------------------------------|

  |               |               |               |
|----------------------------------------------------------------|
|----------------------------------------------------------------|
|3---------------------------------------3-----------------------|
|--------------------------------------------------------3-------|

  |               |               |               |
|----------------------------------------------------------------|
|0-------------------------------2---------------4---------------|
|----------------------------------------------------------------|
|----------------------------------------------------------------|

  |               |               |               |
|0---------------------------------------------------------------|
|------------------------------------------------0-------2-------|
|----------------------------------------------------------------|
|----------------------------------------------------------------|

  |               |               |               |
|0-----------------------0---------------------------------------|
|------------------------------------------------0---------------|
|----------------------------------------------------------------|
|----------------------------------------------------------------|

  |               |               |               |
|----------------------------------------------------------------|
|----------------------------------------------------------------|
|3---------------------------------------3-----------------------|
|--------------------------------------------------------3-------|

  |               |               |               |
|----------------------------------------------------------------|
|0-----------------------0-------2---------------4---------------|
|----------------------------------------------------------------|
|----------------------------------------------------------------|

  |               |               |               |
|0-----------------------0---------------------------------------|
|--------------------------------4-----------------------4-------|
|----------------------------------------------------------------|
|----------------------------------------------------------------|

  |               |               |               |
|----------------------------------------------------------------|
|2-------------------------------0---------------2-------0-------|
|----------------------------------------------------------------|
|----------------------------------------------------------------|

  |               |               |               |
|----------------------------------------------------------------|
|----------------------------------------------------------------|
|3---------------------------------------3-----------------------|
|------------------------------------------------3---------------|

  |               |               |               |
|----------------------------------------------------------------|
|0---------------------------------------0---------------0-------|
|----------------------------------------------------------------|
|----------------------------------------------------------------|

  |               |               |               |
|----------------------------------------------------------------|
|----------------------------------------------------------------|
|3-----------------------------------------------3---------------|
|--------------------------------3-------------------------------|

  |               |               |               |
|----------------------------------------------------------------|
|0---------------------------------------------------------------|
|----------------------------------------------------------------|
|----------------------------------------------------------------|

  |               |               |               |
|0-------------------------------------------------------0-------|
|----------------------------------------------------------------|
|----------------------------------------------------------------|
|----------------------------------------------------------------|

  |               |               |               |
|----------------------------------------------------------------|
|4-------------------------------------------------------0-------|
|----------------------------------------------------------------|
|----------------------------------------------------------------|

  |               |               |               |
|----------------------------------------------------------------|
|----------------------------------------------------------------|
|3-------------------------------------------------------3-------|
|------------------------------------------------3---------------|

  |               |               |               |
|----------------------------------------------------------------|
|0-------------------------------2---------------4---------------|
|----------------------------------------------------------------|
|----------------------------------------------------------------|

  |               |               |               |
|0-------------------------------------------------------0-------|
|----------------------------------------------------------------|
|----------------------------------------------------------------|
|----------------------------------------------------------------|

  |               |               |               |
|----------------------------------------------------------------|
|4-------------------------------------------------------0-------|
|----------------------------------------------------------------|
|----------------------------------------------------------------|

  |               |               |               |
|----------------------------------------------------------------|
|----------------------------------------------------------------|
|3---------------------------------------------------------------|
|--------------------------------------------------------3-------|

  |               |               |               |
|----------------------------------------------------------------|
|0-------------------------------2---------------4---------------|
|----------------------------------------------------------------|
|----------------------------------------------------------------|

  |               |               |               |
|0-------------------------------------------------------0-------|
|----------------------------------------------------------------|
|----------------------------------------------------------------|
|----------------------------------------------------------------|

  |               |               |               |
|----------------------------------------------------------------|
|4-----------------------------------------------4---------------|
|----------------------------------------------------------------|
|----------------------------------------------------------------|

  |               |               |               |
|----------------------------------------------------------------|
|----------------------------------------------------------------|
|3-------------------------------------------------------3-------|
|----------------------------------------------------------------|

  |               |               |               |
|----------------------------------------------------------------|
|0---------------------------------------2---------------4-------|
|----------------------------------------------------------------|
|----------------------------------------------------------------|

  |               |               |               |
|0-------------------------------------------------------0-------|
|----------------------------------------------------------------|
|----------------------------------------------------------------|
|----------------------------------------------------------------|

  |               |               |               |
|----------------------------------------------------------------|
|4---------------------------------------4-----------------------|
|--------------------------------------------------------4-------|
|----------------------------------------------------------------|

  |               |               |               |
|----------------------------------------------------------------|
|----------------------------------------------------------------|
|3-------------------------------------------------------3-------|
|----------------------------------------------------------------|

  |               |               |               |
|----------------------------------------------------------------|
|0---------------------------------------------------------------|
|--------------------------------------------------------4-------|
|----------------------------------------------------------------|

  |               |               |               |
|----------------------------------------------------------------|
|----------------------------------------------------------------|
|3-------------------------------------------------------3-------|
|----------------------------------------------------------------|

  |               |               |               |
|----------------------------------------------------------------|
|0-------------------------------2---------------4---------------|
|----------------------------------------------------------------|
|----------------------------------------------------------------|

  |               |               |               |
|0-----------------------0---------------------------------------|
|--------------------------------4-------------------------------|
|----------------------------------------------------------------|
|----------------------------------------------------------------|

  |               |               |               |
|----------------------------------------------------------------|
|2-----------------------2-------0---------------2-------0-------|
|----------------------------------------------------------------|
|----------------------------------------------------------------|

  |               |               |               |
|----------------------------------------------------------------|
|----------------------------------------------------------------|
|3---------------------------------------3-----------------------|
|------------------------------------------------3---------------|

  |               |               |               |
|----------------------------------------------------------------|
|0-------------------------------2---------------4---------------|
|----------------------------------------------------------------|
|----------------------------------------------------------------|

  |               |               |               |
|0-----------------------0-------0-------------------------------|
|--------------------------------------------------------0-------|
|----------------------------------------------------------------|
|----------------------------------------------------------------|

  |               |               |               |
|0---------------------------------------0-----------------------|
|--------------------------------------------------------0-------|
|----------------------------------------------------------------|
|----------------------------------------------------------------|

  |               |               |               |
|----------------------------------------------------------------|
|----------------------------------------------------------------|
|3---------------------------------------3---------------3-------|
|----------------------------------------------------------------|

  |               |               |               |
|----------------------------------------------------------------|
|0-------------------------------2---------------4---------------|
|----------------------------------------------------------------|
|----------------------------------------------------------------|

  |               |               |               |
|0-------------------------------------------------------0-------|
|----------------------------------------------------------------|
|----------------------------------------------------------------|
|----------------------------------------------------------------|

  |               |               |               |
|----------------------------------------------------------------|
|4-------------------------------------------------------0-------|
|----------------------------------------------------------------|
|----------------------------------------------------------------|

  |               |               |               |
|----------------------------------------------------------------|
|----------------------------------------------------------------|
|3-------------------------------------------------------3-------|
|----------------------------------------------------------------|

  |               |               |               |
|------------------------------------------------2---------------|
|0---------------2---------------4-------------------------------|
|----------------------------------------------------------------|
|----------------------------------------------------------------|

  |               |               |               |
|0-------------------------------------------------------0-------|
|----------------------------------------------------------------|
|----------------------------------------------------------------|
|----------------------------------------------------------------|

  |               |               |               |
|----------------------------------------------------------------|
|4-------------------------------------------------------4-------|
|----------------------------------------------------------------|
|----------------------------------------------------------------|

  |               |               |               |
|----------------------------------------------------------------|
|----------------------------------------------------------------|
|3-------------------------------------------------------3-------|
|----------------------------------------------------------------|

  |               |               |               |
|------------------------------------------------2---------------|
|0---------------2---------------4-------------------------------|
|----------------------------------------------------------------|
|----------------------------------------------------------------|




Created with TablEdit http://www.tabledit.com/
  development and support by
dmitry ivanov