rock
 
|tablatures   |lyrics   |discussion forums   |more tabs @ XGuitar.com

Eric Clapton Cream tabs

Toad guitar tab

Title: Toad
Artist: Cream
Album: Fresh Cream
Guitar Player: Eric Clapton
Tabbed By: George

E----------------|
B--9--9----------|
G:-9--9---------:|4
D:-9--9----11-9-:|x
A--7--7----7--7--|
E----------------|

E-------------------------|
B----------------------9--|
G--9-7--------------7--9--|
D------9-s7---5-7s9-7--9--|
A-----------7----------7--|
E-------------------------|

E----------------|
B--9--9----------|
G:-9--9---------:|4
D:-9--9----11-9-:|x
A--7--7----7--7--|
E----------------|

E-------------------------|
B----------------------9--|
G--9-7--------------7--9--|
D------9-s7---5-7s9-7--9--|
A-----------7----------7--|
E-------------------------|

E----------------|
B--9--9----------|
G--9--9---------:|4
D--9--9----11-9-:|x
A--7--7----7--7--|
E----------------|

E--------|----------|
B-----9--|----------|
G--8--9--|--(bass)--|
D--8--9--|----------|
A--6--7--|-2--------|
E--------|---4-2-0--|


Guitar Solo

--when the bass hits that open E note, thats when
  you start the solo

E-----------------------------|
B-----------------------------|
G--9--9--9-9--9-9--9--9-9/-\\--|
D--9--9--9-9--9-9--9--9-9/-\\--|
A-----------------------------|
E-----------------------------|

    @=feedback
E------------------------------------------|
B--------------9~~~~@@@@@@---9b~~-7b~-5b~--|
G--7b~~~~~~~~--9~~~~@@@@@@-----------------|
D--------------9~~~~@@@@@@-----------------|
A------------------------------------------|
E------------------------------------------|

E-----------------------------------------------|
B------5----------------------------------------|
G--5---5----------------------------------------|
D--5h7---7b-5-7~~-------------------------------|
A-------------7~~-----5h7----5h7----5h7----5h7--|
E-------------------7------7------7------7------|

E-------------------------------------|
B------------------------------@@@@@--|
G-----------------------9~~~~~~~~@@@--|
D------@@@@@@@@@---7-h9---------------|
A--5b~~~~~~~~~@@----------------------|
E-------------------------------------|

--let that E keep on ringing out and fiddle with
  the volume controls... 

E------------------------------------|
B----@@@---@@@---@@@---@@@--@@@-@@@--|
G-(9)--------------------------------|
D------------------------------------|
A------------------------------------|
E------------------------------------|

E-----------|----------|
B--------9--|----------|
G--------9--|--(bass)--|
D-9-9--9-9--|----------|
A-7-7--7-7--|-2--------|
E-----------|---4-2-0--|

Now is the drum solo, and after that is over you play parts of
the riffs tabbed above, you can figure out which. For the crazy
ending just strum an E power chord.

That\'s it, email me at yourmother7711@hotmail.com if you have any
comments or corrections

-George
  development and support by
dmitry ivanov