rock
 
|tablatures   |lyrics   |discussion forums   |more tabs @ XGuitar.com

Eric Clapton Cream tabs

Spoonful guitar tab

This is a cover version of the muddy waters Spoonful.

e----------------------------
b----------------------------
g---------------------------1
d---------------------------2
a---------------------------2
E----3---0---3---0---3---0---
                         *   E

You can add a chord between E and the last note with * under it. A works the best.

e-----------------------------------
b-----------------------------2-----
g-----------------------------2----1
d-----------------------------2----2
a----------------------------------2
E----3---0---3---0---3---0----------
                            E

There you go enjoy please rate wel first timer!
  development and support by
dmitry ivanov