rock
 
|tablatures   |lyrics   |discussion forums   |more tabs @ XGuitar.com

Eric Clapton Cream tabs

Spoonful bass tab

Artist: Willie Dixon, adapted by Cream
Name of Song: Spoonful




Well, here's the basic riff for "Spoonful."
I hope you all like it! It's very simple.
I picked it out myself! 

G ------------------------------------------------
D ------------------------------------------------
A ----0----3----0----3-----0-----3-------0------
E ------------------------------------------------

         1  +  2  +  3  +  4  +    1  +  2  +  3  +  4  +

G ------------------------------------------------
D -----------------------------------------------
A ----0----3----0----3-----0-----3-------0-----
E ------------------------------------------------

         1  +  2  +  3  +  4  +    1  +  2  +  3  +  4  +

G ------------------------------------------------
D ------------------------------------------------
A ----0----3----0----3-----0-----3-------0------
E -------------------------------------------------

         1  +  2  +  3  +  4  +    1  +  2  +  3  +  4  +

G ------------------------------------------------
D ------------------------------------------------
A ----0----3----0----3-----0-----3--------------
E -----------------------------------------0------

         1  +  2  +  3  +  4  +    1  +  2  +  3  +  4  +
  development and support by
dmitry ivanov