rock
 
|tablatures   |lyrics   |discussion forums   |more tabs @ XGuitar.com

Eric Clapton Cream tabs

Rollin And Tumblin guitar tab

Gtr I (D G D G B D) - 'Gtr. 1'
Gtr II (E A D G B E) - 'Gtr. 2'

  Q=122
 4/4                                                            2/4
  Gtr II
|------------------|---------------------|---------------------|-----------|
|----3-------3-----|-------3-------3-----|-------3-------3-----|-------3---|
|----3-------3-----|-------3-------3-----|-------3-------3-----|-------3---|
|--5---5-3-5---5---|-----5---5-3-5---5---|-----5---5-3-5---5---|-----5---5-|
|------------------|---------------------|---------------------|-----------|
|------------------|---------------------|---------------------|-----------|
|
| Gtr I
|------------------|---------------------|---------------------|-----------|
|----3-------------|-------3-------3-----|-------3-------3-----|-----------|
|--0-3-0---0-3-0-0-|-0-0-0-3-0---0-3-0-0-|-0-0-0-3-0---0-3-0-0-|-0-0-------|
|--------3---------|-----------3---------|-----------3---------|-----0-0---|
|------------------|---------------------|---------------------|-----------|
|------------------|---------------------|---------------------|-----------|


 4/4
|-------5-5-5-5-----|---3-3---3---3-----|
|-------6-6-6-6-----|---5-5---5---5-----|
|-------5-5-5-5-----|---3-3---3---3-----|
|-------7-7-7-7-----|---5-5---5---5-----|
|-------5-5-5-5-----|---3-3---3---3-----|
|-------------------|-------------------|
|
|-------------------|-------------------|
|-7-7-7-7-7-7-7-7-7-|-5-5-5-5-5-5-5-5-5-|
|-7-7-7-7-7-7-7-7-7-|-5-5-5-5-5-5-5-5-5-|
|-7-7-7-7-7-7-7-7-7-|-5-5-5-5-5-5-5-5-5-|
|-------------------|-------------------|
|-------------------|-------------------|


|------------------|---------------------|
|----3-------3-----|-------3-------3-----|
|----3-------3-----|-------3-------3-----|
|--5---5-3-5---5---|-----5---5-3-5---5---|
|------------------|---------------------|
|------------------|---------------------|
|
|------------------|---------------------|
|----3-------3-----|-------3-------3-----|
|--0-3-0---0-3-0-0-|-0-0-0-3-0---0-3-0-0-|
|--------3---------|-----------3---------|
|------------------|---------------------|
|------------------|---------------------|


                       2/4         4/4
|---------------------|-----------|---3---3---3---3---|---3---3---3---3----|
|-------3-------3-----|-------3---|---5---5---5---5---|---5---5---5---5----|
|-------3-------3-----|-------3-5-|---3---3---3---3---|---3---3---3---3----|
|-----5---5-3-5---5---|-----5-----|---5---5---5---5---|---5---5---5---5----|
|---------------------|-----------|---3---3---3---3---|---3---3---3---3----|
|---------------------|-----------|-------------------|--------------------|
|
|---------------------|-----------|-------------------|--------------------|
|-------3-------3-----|-----------|-5-5-5-5-5-5-5-5-5-|-5-5-5-5-5-5-5-5-5--|
|-0-0-0-3-0---0-3-0-0-|-0-0-------|-5-5-5-5-5-5-5-5-5-|-5-5-5-5-5-5-5-5-5--|
|-----------3---------|-----0-0---|-5-5-5-5-5-5-5-5-5-|-5-5-5-5-5-5-5-5-5--|
|---------------------|-----------|-------------------|--------------------|
|---------------------|-----------|-------------------|--------------------|


                                          2/4         4/4
|------------------|---------------------|-----------|---3--3---3---3----|
|----3-------3-----|-------3-------3-----|-------3---|---5--5---5---5----|
|----3-------3-----|-------3-------3-----|-------3---|---3--3---3---3----|
|--5---5-3-5---5---|-----5---5-3-5---5---|-----5---5-|---5--5---5---5----|
|------------------|---------------------|-----------|---3--3---3---3----|
|------------------|---------------------|-----------|-------------------|
|
|------------------|---------------------|-----------|-5----5-5-5-5---5--|
|----3-------3-----|-------3-------3-----|-----------|-5----5-5-5-5---5--|
|--0-3-0---0-3-0-0-|-0-0-0-3-0---0-3-0-0-|-0-0-------|-5----5-5-5-5---5--|
|--------3---------|-----------3---------|-----0-0---|-------------------|
|------------------|---------------------|-----------|-------------------|
|------------------|---------------------|-----------|-------------------|


                                                         2/4
|---3----3--3--|------------------|---------------------|---------|
|---5----5--5--|----3-------3-----|-------3-------3-----|-----3---|
|---3----3--3--|----3-------3-----|-------3-------3-----|-----3---|
|---5----5--5--|--5---5-3-5---5---|-----5---5-3-5---5---|---5---5-|
|---3----3--3--|------------------|---------------------|---------|
|--------------|------------------|---------------------|---------|
|
|-5-5-5--5--5--|------------------|---------------------|---------|
|-5-5-5--5--5--|----3-------3-----|-------3-------3-----|---------|
|-5-5-5--5--5--|--0-3-0---0-3-0-0-|-0-0-0-3-0---0-3-0-0-|-0-0-----|
|--------------|--------3---------|-----------3---------|-----0---|
|--------------|------------------|---------------------|---------|
|--------------|------------------|---------------------|---------|


 4/4
|---5---5---5---5-|---3---3---3---3-|------------------|---------------------|
|---7---7---7---7-|---5---5---5---5-|----3-------3-----|-------3-------3-----|
|---5---5---5---5-|---3---3---3---3-|----3-------3-----|-------3-------3-----|
|---7---7---7---7-|---5---5---5---5-|--5---5-3-5---5---|-----5---5-3-5---5---|
|---5---5---5---5-|---3---3---3---3-|------------------|---------------------|
|-----------------|-----------------|------------------|---------------------|
|
|-----------------|-----------------|------------------|---------------------|
|-7-7-7-7-7-7-7-7-|-5-5-5-5-5-5-5-5-|----3-------3-----|-------3-------3-----|
|-7-7-7-7-7-7-7-7-|-5-5-5-5-5-5-5-5-|--0-3-0---0-3-0-0-|-0-0-0-3-0---0-3-0-0-|
|-7-7-7-7-7-7-7-7-|-5-5-5-5-5-5-5-5-|--------3---------|-----------3---------|
|-----------------|-----------------|------------------|---------------------|
|-----------------|-----------------|------------------|---------------------|


 2/4           4/4
|-------------|---3--3---3--3-|--3--------------|-------------------|
|-------3-----|---5--5---5--5-|--5--------------|-----3-------3-----|
|-------3-----|---3--3---3--3-|--3--------------|-----3-------3-----|
|-----5-----5-|---5--5---5--5-|--5--------------|---5---5-3-5---5---|
|-------------|---3--3---3--3-|--3--------------|-------------------|
|-------------|---------------|-----------------|-------------------|
|
|---------0---|-5-5--5-5------|--5-5s3---3------|-------------------|
|-------0-----|---------------|--------3----3---|-------------------|
|-0-0-0-------|---------------|---------------3-|-2-0-3-0---0-3-0-0-|
|-------------|---------------|-----------------|---------3---------|
|-------------|---------------|-----------------|-------------------|
|-------------|---------------|-----------------|-------------------|


                       2/4           4/4
|---------------------|-------------|---3--3---3--3-|--3-------3--3----|
|-------3-------3-----|-------3-----|---5--5---5--5-|--5-------5--5----|
|-------3-------3-----|-------3-----|---3--3---3--3-|--3-------3--3----|
|-----5---5-3-5---5---|-----5-----5-|---5--5---5--5-|--5-------5--5----|
|---------------------|-------------|---3--3---3--3-|--3-------3--3----|
|---------------------|-------------|---------------|------------------|
|
|---------------------|-------------|-5-5--5-5-5----|--5-5-3-0-3-------|
|---------------3-----|-------0-0---|----------5----|--5-5-3-0-3--3----|
|-0-0-0-3-0---0-3-0-0-|-0-0-0-------|---------------|---------------3--|
|-----------3---------|-------------|---------------|------------------|
|---------------------|-------------|---------------|------------------|
|---------------------|-------------|---------------|------------------|


                                           2/4           4/4
|-------------------|---------------------|-------------|---5--5---5--5--|
|-----3-------3-----|-------3-------3-----|-------3-----|---7--7---7--7--|
|-----3-------3-----|-------3-------3-----|-------3-----|---5--5---5--5--|
|---5---5-3-5---5---|-----5---5-3-5---5---|-----5-----5-|---7--7---7--7--|
|-------------------|---------------------|-------------|---5--5---5--5--|
|-------------------|---------------------|-------------|----------------|
|
|-------------------|---------------------|-------------|----------------|
|-------------------|---------------------|-------------|----------------|
|-2-0-3-0---0-3-0-0-|-0-0-0-3-0---0-3-0-0-|-0-0-0-------|----------------|
|---------3---------|-----------3---------|-------0-0---|-7-7--7-7-7-----|
|-------------------|---------------------|-------0-0---|-7-7--7-7-7-----|
|-------------------|---------------------|-------------|----------------|


|---3--3---3---3-|------------------|
|---5--5---5---5-|----3-------3-----|
|---3--3---3---3-|----3-------3-----|
|---5--5---5---5-|--5---5-3-5---5---|
|---3--3---3---3-|------------------|
|----------------|------------------|
|
|----------------|------------------|
|----------------|----3-------3-----|
|----------------|--0-3-0---0-3-0-0-|
|-5-5--5---------|--------3---------|
|-5-5--5---0-3---|------------------|
|--------2-------|------------------|


|---------------------|----------------------|
|-------3-------3-----|-------3-------3------|
|-------3-------3-----|-------3-------3------|
|-----5---5-3-5---5---|-----5---5-3-5---5----|
|---------------------|----------------------|
|---------------------|----------------------|
|
|---------------------|----------------------|
|-------3-------3-----|-------3-------3------|
|-0-0-0-3-0---0-3-0-0-|-0-0-0-3-0---0-3-0-0--|
|-----------3---------|-----------3----------|
|---------------------|----------------------|
|---------------------|----------------------|


 2/4             4/4
|---------------|---3---3---3---3---|---3-----3---3-----|------------------|
|-------3-------|---5---5---5---5---|---5-----5---5-----|----3-------3-----|
|-------3-------|---3---3---3---3---|---3-----3---3-----|----3-------3-----|
|---5---------5-|---5---5---5---5---|---5-----5---5-----|--5---5-3-5---5---|
|---------------|---3---3---3---3---|---3-----3---3-----|------------------|
|---------------|-------------------|-------------------|------------------|
|
|---------------|-------------------|-------------------|------------------|
|---------------|-5-5-5-5-5-5-5-5-5-|-5-5-5-5-5-5-5-5-5-|----3-------3-----|
|-0-0-0-0-0-0-0-|-5-5-5-5-5-5-5-5-5-|-5-5-5-5-5-5-5-5-5-|--0-3-0---0-3-0-0-|
|---------------|-5-5-5-5-5-5-5-5-5-|-5-5-5-5-5-5-5-5-5-|--------3---------|
|---------------|-------------------|-------------------|------------------|
|---------------|-------------------|-------------------|------------------|


                                             2/4           4/4
|---------------------|---------------------|-------------|---3---3---3---3----|
|-------3-------3-----|-------3-------3-----|-------3-----|---5---5---5---5----|
|-------3-------3-----|-------3-------3-----|-------3-----|---3---3---3---3----|
|-----5---5-3-5---5---|-----5---5-3-5---5---|-----5-----5-|---5---5---5---5----|
|---------------------|---------------------|-------------|---3---3---3---3----|
|---------------------|---------------------|-------------|--------------------|
|
|---------------------|---------------------|-------------|--------------------|
|-------3-------3-----|-------3-------3-----|-------------|-5-5-5-5-5-5-5-5-5--|
|-0-0-0-3-0---0-3-0-0-|-0-0-0-3-0---0-3-0-0-|-0-0---------|-5-5-5-5-5-5-5-5-5--|
|-----------3---------|-----------3---------|-----0-0-0---|-5-5-5-5-5-5-5-5-5--|
|---------------------|---------------------|-------------|--------------------|
|---------------------|---------------------|-------------|--------------------|


                                                              2/4
|---3-----3---3-----|------------------|---------------------|-----------|
|---5-----5---5-----|----3-------3-----|-------3-------3-----|-------3---|
|---3-----3---3-----|----3-------3-----|-------3-------3-----|-------3---|
|---5-----5---5-----|--5---5-3-5---5---|-----5---5-3-5---5---|-----5---5-|
|---3-----3---3-----|------------------|---------------------|-----------|
|-------------------|------------------|---------------------|-----------|
|
|-------------------|------------------|---------------------|-----------|
|-5-5-5-5-5-5-5-5-5-|----3-------3-----|-------3-------3-----|-----------|
|-5-5-5-5-5-5-5-5-5-|--0-3-0---0-3-0-0-|-0-0-0-3-0---0-3-0-0-|-0-0-0-0---|
|-5-5-5-5-5-5-5-5-5-|--------3---------|-----------3---------|-----------|
|-------------------|------------------|---------------------|-----------|
|-------------------|------------------|---------------------|-----------|


 4/4
|---5---5---5---5---|---3---3-3---3-----|
|---7---7---7---7---|---5---5-5---5-----|
|---5---5---5---5---|---3---3-3---3-----|
|---7---7---7---7---|---5---5-5---5-----|
|---5---5---5---5---|---3---3-3---3-----|
|-------------------|-------------------|
|
|-------------------|-------------------|
|-7-7-7-7-7-7-7-7-7-|-5-5-5-5-5-5-5-5-5-|
|-7-7-7-7-7-7-7-7-7-|-5-5-5-5-5-5-5-5-5-|
|-7-7-7-7-7-7-7-7-7-|-5-5-5-5-5-5-5-5-5-|
|-------------------|-------------------|
|-------------------|-------------------|


|------------------|---------------------|
|----3-------3-----|-------3-------3-----|
|----3-------3-----|-------3-------3-----|
|--5---5-3-5---5---|-----5---5-3-5---5---|
|------------------|---------------------|
|------------------|---------------------|
|
|------------------|---------------------|
|----3-------3-----|-------3-------3-----|
|--0-3-0---0-3-0-0-|-0-0-0-3-0---0-3-0-0-|
|--------3---------|-----------3---------|
|------------------|---------------------|
|------------------|---------------------|


                                             2/4         4/4
|---------------------|---------------------|-----------|---3---3---3---3---|
|-------3-------3-----|-------3-------3-----|-------3---|---5---5---5---5---|
|-------3-------3-----|-------3-------3-----|-------3---|---3---3---3---3---|
|-----5---5-3-5---5---|-----5---5-3-5---5---|-----5---5-|---5---5---5---5---|
|---------------------|---------------------|-----------|---3---3---3---3---|
|---------------------|---------------------|-----------|-------------------|
|
|---------------------|---------------------|-----------|-------------------|
|-------3-------3-----|-------3-------3-----|-----------|-5-5-5-5-5-5-5-5-5-|
|-0-0-0-3-0---0-3-0-0-|-0-0-0-3-0---0-3-0-0-|-0-0-0-0---|-5-5-5-5-5-5-5-5-5-|
|-----------3---------|-----------3---------|-----------|-5-5-5-5-5-5-5-5-5-|
|---------------------|---------------------|-----------|-------------------|
|---------------------|---------------------|-----------|-------------------|


|---3-----3---3-----|------------------|---------------------|
|---5-----5---5-----|----3-------3-----|-------3-------3-----|
|---3-----3---3-----|----3-------3-----|-------3-------3-----|
|---5-----5---5-----|--5---5-3-5---5---|-----5---5-3-5---5---|
|---3-----3---3-----|------------------|---------------------|
|-------------------|------------------|---------------------|
|
|-------------------|------------------|---------------------|
|-5-5-5-5-5-5-5-5-5-|----3-------3-----|-------3-------3-----|
|-5-5-5-5-5-5-5-5-5-|--0-3-0---0-3-0-0-|-0-0-0-3-0---0-3-0-0-|
|-5-5-5-5-5-5-5-5-5-|--------3---------|-----------3---------|
|-------------------|------------------|---------------------|
|-------------------|------------------|---------------------|


                       2/4         4/4
|---------------------|-----------|---3---3---3---3---|---3-----3---3------|
|-------3-------3-----|-------3---|---5---5---5---5---|---5-----5---5------|
|-------3-------3-----|-------3---|---3---3---3---3---|---3-----3---3------|
|-----5---5-3-5---5---|-----5---5-|---5---5---5---5---|---5-----5---5------|
|---------------------|-----------|---3---3---3---3---|---3-----3---3------|
|---------------------|-----------|-------------------|--------------------|
|
|---------------------|-----------|-------------------|--------------------|
|-------3-------3-----|-----------|-5-5-5-5-5-5-5-5-5-|-5-5-5-5-5-5-5-5-5--|
|-0-0-0-3-0---0-3-0-0-|-0-0-------|-5-5-5-5-5-5-5-5-5-|-5-5-5-5-5-5-5-5-5--|
|-----------3---------|-----0-0---|-5-5-5-5-5-5-5-5-5-|-5-5-5-5-5-5-5-5-5--|
|---------------------|-----------|-------------------|--------------------|
|---------------------|-----------|-------------------|--------------------|


                                                                2/4
|------------------|---------------------|---------------------|------------|
|----3-------3-----|-------3-------3-----|-------3-------3-----|-------3----|
|----3-------3-----|-------3-------3-----|-------3-------3-----|-------3----|
|--5---5-3-5---5---|-----5---5-3-5---5---|-----5---5-3-5---5---|-----5---5--|
|------------------|---------------------|---------------------|------------|
|------------------|---------------------|---------------------|------------|
|
|------------------|---------------------|---------------------|------------|
|----3-------3-----|-------3-------3-----|-------3-------3-----|------------|
|--0-3-0---0-3-0-0-|-0-0-0-3-0---0-3-0-0-|-0-0-0-3-0---0-3-0-0-|-0-0--------|
|--------3---------|-----------3---------|-----------3---------|-----0-0----|
|------------------|---------------------|---------------------|------------|
|------------------|---------------------|---------------------|------------|


 4/4
|---5--5--5--5-|---3-3--3--3--|------------------|---------------------|
|---7--7--7--7-|---5-5--5--5--|------------------|---------------------|
|---5--5--5--5-|---3-3--3--3--|----3-------3-----|-------3-------3-----|
|---7--7--7--7-|---5-5--5--5--|--5---5-3-5---5---|-----5---5-3-5---5---|
|---5--5--5--5-|---3-3--3--3--|------------------|---------------------|
|--------------|--------------|------------------|---------------------|
|
|--------------|--------------|------------------|---------------------|
|-7------------|-5------------|----3-------3-----|-------3-------3-----|
|-7------------|-5------------|--0-3-0---0-3-0-0-|-0-0-0-3-0---0-3-0-0-|
|-7------------|-5------------|--------3---------|-----------3---------|
|--------------|--------------|------------------|---------------------|
|--------------|--------------|------------------|---------------------|


|---------------------|---------------------|---------------------|
|---------------------|---------------------|-------3-------3-----|
|-------3-------3-----|-------3-------3-----|-------3-------3-----|
|-----5---5-3-5---5---|-----5---5-3-5---5---|-----5---5-3-5---5---|
|---------------------|---------------------|---------------------|
|---------------------|---------------------|---------------------|
|
|---------------------|---------------------|---------------------|
|-------3-------3-----|-------3-------3-----|---------------------|
|-0-0-0-3-0---0-3-0-0-|-0-0-0-3-0---0-3-0-0-|-0-0-0-3-0---0-3-0-0-|
|-----------3---------|-----------3---------|-----------3---------|
|---------------------|---------------------|---------------------|
|---------------------|---------------------|---------------------|


|---------------------|---------------------|---------------------|
|-------3-------3-----|-------3-------3-----|-------3-------3-----|
|-------3-------3-----|-------3-------3-----|-------3-------3-----|
|-----5---5-3-5---5---|-----5---5-3-5---5---|-----5---5-3-5---5---|
|---------------------|---------------------|---------------------|
|---------------------|---------------------|---------------------|
|
|---------------------|---------------------|---------------------|
|---------------------|---------------------|---------------------|
|-0-0-0-3-0---0-3-0-0-|-0-0-0-3-0---0-3-0-0-|-0-0-0-3-0---0-3-0-0-|
|-----------3---------|-----------3---------|-----------3---------|
|---------------------|---------------------|---------------------|
|---------------------|---------------------|---------------------|


|---------------------|---------------------|---------------------|
|-------3-------3-----|-------3-------3-----|-------3-------3-----|
|-------3-------3-----|-------3-------3-----|-------3-------3-----|
|-----5---5-3-5---5---|-----5---5-3-5---5---|-----5---5-3-5---5---|
|---------------------|---------------------|---------------------|
|---------------------|---------------------|---------------------|
|
|---------------------|---------------------|---------------------|
|---------------------|---------------------|---------------------|
|-0-0-0-3-0---0-3-0-0-|-0-0-0-3-0---0-3-0-0-|-0-0-0-3-0---0-3-0-0-|
|-----------3---------|-----------3---------|-----------3---------|
|---------------------|---------------------|---------------------|
|---------------------|---------------------|---------------------|


|---------------------|---------------------|---------------------|
|-------3-------3-----|-------3-------3-----|-------3-------3-----|
|-------3-------3-----|-------3-------3-----|-------3-------3-----|
|-----5---5-3-5---5---|-----5---5-3-5---5---|-----5---5-3-5---5---|
|---------------------|---------------------|---------------------|
|---------------------|---------------------|---------------------|
|
|---------------------|---------------------|---------------------|
|---------------------|---------------------|---------------------|
|-0-0-0-3-0---0-3-0-0-|-0-0-0-3-0---0-3-0-0-|-0-0-0-3-0---0-3-0-0-|
|-----------3---------|-----------3---------|-----------3---------|
|---------------------|---------------------|---------------------|
|---------------------|---------------------|---------------------|


|---------------------|---------------------|---------------------------|
|-------3-------3-----|---3-3-3-x-x-----3---|--3--3-----3--x-x------3---|
|-------3-------3-----|---3-3-3-x-x-----3---|--3--3-----3--x-x------3---|
|-----5---5-3-5---5---|---3-3-3-x-x-3-5---5-|--3--3-----3--x-x--3-5---5-|
|---------------------|---------------------|---------------------------|
|---------------------|---------------------|---------------------------|
|
|---------------------|-----5-5-------------|----12s10------------------|
|---------------------|---------------------|----------12---------------|
|-0-0-0-3-0---0-3-0-0-|-0-------------------|-------------12---12-------|
|-----------3---------|---------------------|---------------------------|
|---------------------|---------------------|---------------------------|
|---------------------|---------------------|---------------------------|


|--------------------|--------------------|---------------------------|
|--3-3-3-x-x-----3---|--3-3-3-x-x-----3---|--3--3-----3--x-x------3---|
|--3-3-3-x-x-----3---|--3-3-3-x-x-----3---|--3--3-----3--x-x------3---|
|--3-3-3-x-x-3-5---5-|--3-3-3-x-x-3-5---5-|--3--3-----3--x-x--3-5---5-|
|--------------------|--------------------|---------------------------|
|--------------------|--------------------|---------------------------|
|
|------5-5---5-------|--------------------|----12-10------------------|
|--------------------|----6s3-------------|----------12---------------|
|----4---------------|--------0---0-------|-------------12---12-------|
|--------------------|--------------------|---------------------------|
|--------------------|--------------------|---------------------------|
|--------------------|--------------------|---------------------------|


|--------------------|--------------------------|------------------------|
|--3-3-3-x-x-----3---|--3-3---3-x-x-----3-------|---3-3---3-x-x-----3----|
|--3-3-3-x-x-----3---|--3-3---3-x-x-----3-------|---3-3---3-x-x-----3----|
|--3-3-3-x-x-3-5---5-|--3-3---3-x-x-3-5-----5---|---3-3---3-x-x-3-5---5--|
|--------------------|--------------------------|------------------------|
|--------------------|--------------------------|------------------------|
|
|--------5---5-------|----5-3-0-3---3-----------|-----------5---5--------|
|--------------------|------------------3s1-----|------------------------|
|----4-0-------------|----------------------2s4-|-0---3-2-0--------------|
|--------------------|--------------------------|------------------------|
|--------------------|--------------------------|------------------------|
|--------------------|--------------------------|------------------------|


|---------------------------*|
|---3-3-3---x-x-------3-----*|
|---3-3-3---x-x-------3-----*|
|---3-3-3---x-x-3-5-------5-*|
|---------------------------*|
|---------------------------*|
|
|-5-3-0---------5---5-5-----*|
|-----------------------0---*|
|-------2-4-0-----0-------0-*|
|---------------------------*|
|---------------------------*|
|---------------------------*|
  development and support by
dmitry ivanov